» » »

A Static Lullaby, Toxic Tabs (ver.2)

Artists:  A B C D E F G H I J K L M N O P Q R S T U V W X Y Z # 

Toxic Tabs (ver.2)

A Static Lullaby Tabs
 Rating:
3.7/5 (6 votes)
Toxic lessons Tabs too difficult? Try these video lessons and learn fast
                This is in drop c, the last tab i saw was faulty
this is me first tab, soooooooooooooo cut me some slack
but i think it should be pretty accurate, so yeah

acoutic intro

----|-----cool part-------------|-------------------------|
-3--|---------------------------|-------------------------|
-2--|---------------------------|-14/9\10/7---------------|
-0--|---------------------------|-------------------------|
-0--|---------------------------|-12/7\ 8/5---------------|
-0--|---0-0h2h3-2-0-3-0h2h3p2p0-|-------------------------|
 X?*go figure                   the supposed EP part, play it how you like it

starts off with a chord, go figure the strumming
and plucking, but from their music vid, i dont think the cool part is strumming

verse
-----------------|---------------------------------------|
-----------------|---------------------------------------|
-----------------|---------------------------------------|
-----------------|-----------------6-6-6-6-6-6-6-6-------|
-5-5-5-5-5-5-5-5-|-8-8-8-8-8-8-8-8-7-7-7-7-7-7-7-7-------|
-----------------|---------------------------------------|
 ...............X3

COOL PART!

-------------------------|-------------------------------|
-------------------------|-------------------------------|
-------------------------|-14/9\10/7---------------------|
-------------------------|-------------------------------|
-------------------------|-12/7\ 8/5---------------------|
-0-0h2h3-2-0-3-0h2h3p2p0-|-------------------------------|

do this whole part one more time,
then, during the screaming part

--------------------------------------------------------|
--------------------------------------------------------|
-7--7--7--10--9-----------------------------------------|
-7--7--7--10--9-----------------------------------------|
-5--5--5--8---7-----------------------------------------|
--------------------------------------------------------|
i'll just put in the chords
and the EP, transmuted into guitar on tremolo picking

--------------20---------|----------------|
--15--17--18-----17--15--|--15--14--------|
-------------------------|----------------|
-------------------------|----------------|
-------------------------|----------------|
-------------------------|----------------|
                      X2

then cool part again followed by...

bass on fuzz...

THEN CHORUS!

------------------------------|-----------|---------------|
------------------------------|-----------|---------------|
-7--10-9--8-----7--10-----9---|-----------|-----7---------|
-7--10-9--8-----7--10--8--9---|-----7-----|--------7------|
-5--8--7--6-----5--8---8--7---|--5-----8--|--5--------8---|
-----------------------8------|-----------|---------------|

play the plucking during this strumming below
-------------------|
-------------------|
-------------------|
--0--3--2--1--0--3-|
--0--3--2--1--0--3-| followed by the cool part again
--0--3--2--1--0--3-|
tremolo palm mute this part to make it sound cool

then verse again

one small difference, before the screaming part
the second part of the COOL PART will be

---------------|
---------------|
--7/10\9/14----|
---------------|
--5/ 8\7/12----|
---------------|

after the chorus one more time

its the bridge!
strumming
--------------------------------------------------------|
--------------------------------------------------------|
--7--10-9--8--7--6--5--6--------------------------------|
--7--10-9--8--7--6--5--6--------------------------------|
--5--8--7--6--5--4--3--4--------------------------------|
--------------------------------------------------------|

EP again, tremolo this on guitar
--17-15-------------------------------------------------|
--------18-15-------------------------------------------|
--------------------------------------------------------|
--------------------------------------------------------|
--------------------------------------------------------|
--------------------------------------------------------|

then its chorus minus the first chord
just learn these parts, and arrange them according to how you hear it
and POOF
YOU KNOW HOW TO PLAY THE SONG!
WOW!
and please tell me if i'm missing anything, or got anything wrong
THANKS PEOPLE!
            
Submit corrections

comments powered by Disqus
↑ Back to top | A Static Lullaby Tabs for Toxic. Lyrics for acoustic guitar and electric guitar. Tablatures and chords are parodies/interpretations of the original songs. You may use it for private study, scholarship, research or language learning purposes only