» » »

A Static Lullaby, Toxic Tabs (ver.1)

Artists:  A B C D E F G H I J K L M N O P Q R S T U V W X Y Z # 

Toxic Tabs (ver.1)

A Static Lullaby Tabs
Rating:
4/5 (13 votes)
Toxic lessons Tabs too difficult? Try these video lessons and learn fast
                Intro-
 GtrI
|---------------------------------------------|
|---------------------------------------------|
|--7--7-109-7-10-10-109-7---------------------|2x
|--7--7-109-7-10-10-109-7---------------------|
|--5--5-8-7-5-8--8--8-7-5---------------------|
|---------------------------------------------|

GtrII
|-----------------------------------------------------------------------|
|-----------------------------------------------------------------------|
|-14---9----10---7---------------------14---9----10---7-----------------|2x
|-----------------------------------------------------------------------|
|-12---7----8----5---------------------12---7----8----5-----------------|
|-----------------------------------------------------------------------|
Acoustic Gtr
|-----------------------------------------------------------------------|
|----3---3------------3---3----------3---3-------------3---3------------|
|----2---2------------2---2----------2---2-------------2---2------------|
|-00-0---0-------00---0---0-----00---0---0---------00--0---0------------|2x
|-00-------------00-------------00-----------------00-------------------|
|-00-------------00-------------00-----------------00-------------------|

Verse-2x
GtrI
|--------------------------------------------|------------------------------|
|--------------------------------------------|------------------------------|
|--------------------------------------------|--------------------14-9-10-7-|
|--------------------------33333333-55555555-|-00-3-2-0-3-3-3-2-0-----------|
|-555555555555555555555555-33333333-55555555-|-00-3-2-0-3-3-3-2-0-12-7-8--5-|
|--------------------------33333333-55555555-|-00-3-2-0-3-3-3-2-0-----------|

GtrII
|--------------------------------------------|------------------------------|
|--------------------------------------------|------------------------------|
|--------------------------------------------|------------------------------|
|-000000000000000000000000-3~-------5~-------|-00-3-2-0-3-3-3-2-0-----------|
|-000000000000000000000000-3~-------5~-------|-00-3-2-0-3-3-3-2-0-----------|
|-000000000000000000000000-3~-------5~-------|-00-3-2-0-3-3-3-2-0-----------|


Refrain-
|---------------------------------------------------------------------|
|---------------------------------------------------------------------|
|---------------------------------------------------------------------|
|-0000000000000000000000000000000-33333333-11-11-11-11-11-11-11-11-11-|
|-0000000000000000000000000000000-33333333-11-11-11-11-11-11-11-11-11-|
|-0000000000000000000000000000000-33333333-11-11-11-11-11-11-11-11-11-|
  ******************************* ******** *  *  *  *  *  *  *  *  *
|-----------------------------------------------------------------------|
|-----------------------------------------------------------------------|
|------------------------14-9-10-7--------------------------------------|
|--00-3-2-0-3-3-3-2-0-----------------0~--------------------------------|
|--00-3-2-0-3-3-3-2-0----12-7-8--5----0~--------------------------------|
|--00-3-2-0-3-3-3-2-0-----------------0~--------------------------------|

Chorus-
1.
GtrI

|-----------------------------------------------------------------------|
|-----------------------------------------------------------------------|
|-----------------------------------------------------------------------|
|-00000000-3333333-22222222-111111111-0000000-3333333-88888888-7777777--|
|-00000000-3333333-22222222-111111111-0000000-3333333-88888888-7777777--|
|-00000000-3333333-22222222-111111111-0000000-3333333-88888888-7777777--|

gtrII
|-----------------------------------------------------------------------------------|
|-----------------------------------------------------------------------------------|
|-77777777-10101010101010-99999999-88888888-77777777-10101010101010-----------------|
|------------------------------------------------------------------88888888-7777777-|
|-55555555-8-8-8-8-8-8-8-77777777-666666666-5555555--8-8-8-8-8-8---88888888-7777777-|
|------------------------------------------------------------------88888888-7777777-|

2.
GtrI
|-----------------------------------------------------|
|-----------------------------------------------------|
|-----------------------------------------------------|
|-00000000-3333333-22222222-111111111-0000000-3333333-|
|-00000000-3333333-22222222-111111111-0000000-3333333-|
|-00000000-3333333-22222222-111111111-0000000-3333333-|

GtrII
|-----------------------------------------------------|
|-----------------------------------------------------|
|----------------------------------------7------------|
|---------7--------------------------------7----------|
|-5----5----8------------------------5-------8--------|
|-----------------------------------------------------|
3.
then
|--------------------------------------|
|--------------------------------------|
|------------------------14-9-10-7-----|
|--00-3-2-0-3-3-3-2-0------------------|
|--00-3-2-0-3-3-3-2-0----12-7-8--5-----|
|--00-3-2-0-3-3-3-2-0------------------|

Verse2
GTrI
|--------------------------------------------|------------------------------|
|--------------------------------------------|------------------------------|
|--------------------------------------------|--------------------7-10-9-14-|
|--------------------------33333333-55555555-|-00-3-2-0-3-3-3-2-0-----------|
|-555555555555555555555555-33333333-55555555-|-00-3-2-0-3-3-3-2-0-5-8--7-12-|
|--------------------------33333333-55555555-|-00-3-2-0-3-3-3-2-0-----------|

GtrII
|--------------------------------------------|------------------------------|
|--------------------------------------------|------------------------------|
|--------------------------------------------|------------------------------|
|-000000000000000000000000-3~-------5~-------|-00-3-2-0-3-3-3-2-0-----------|
|-000000000000000000000000-3~-------5~-------|-00-3-2-0-3-3-3-2-0-----------|
|-000000000000000000000000-3~-------5~-------|-00-3-2-0-3-3-3-2-0-----------|

repeat refrain,Chorus-

Bridge-
GtrI
|----------------------------------------|
|----------------------------------------|
|----------------------------------------|
|-00000000-33333333-22222222-111111111---|
|-00000000-33333333-22222222-111111111---|
|-00000000-33333333-22222222-111111111---|

|-----------------------------------------------------|
|-----------------------------------------------------|
|------------(elevens)--------------------------------|
|-00000000-1111111111111111-1010101010101010-99999999-|
|-00000000-1111111111111111-1010101010101010-99999999-|
|-00000000-1111111111111111-1010101010101010-99999999-|

GtrII
|---------------------------------------------------------------------------------------|
|---------------------------------------------------------------------------------------|
|---------------------------------------------------------------------------------------|
|-77777777-1010101010101010-99999999-88888888-77777777-66666666-55555555----------------|
|---------------------------------------------------------------------------------------|
|-55555555-8-8-8-8-8-8-8-8--77777777-66666666-55555555-44444444-33333333-22222222-------|
|---------------------------------------------------------------------------------------|
Chorus-
1.
GtrI & II
|-----------------------------------------------------------------------|
|-----------------------------------------------------------------------|
|-----------------------------------------------------------------------|
|-------------------22222222-111111111-0000000-3333333-88888888-7777777-|
|-(pause)-----------22222222-111111111-0000000-3333333-88888888-7777777-|
|-------------------22222222-111111111-0000000-3333333-88888888-7777777-|

do chorus pt 2 and 3
            

comments powered by Disqus
↑ Back to top | A Static Lullaby Tabs for Toxic. Lyrics for acoustic guitar and electric guitar. Tablatures and chords are parodies/interpretations of the original songs. You may use it for private study, scholarship, research or language learning purposes only