» » »

The Shooting Star That Destroyed Us All Tabs (ver.4)

Artists:  A B C D E F G H I J K L M N O P Q R S T U V W X Y Z # 

The Shooting Star That Destroyed Us All Tabs (ver.4)

A Static Lullaby
Rating:
0/5 (0 votes)

Hard to play? Try these video lessons and learn fast.
                best song in the world!!!

Intro:guitar 1
e|-----------------------------------------------1-1-1-1-1-1-1-1-1-1--|
B|--------------------------------------------------------------------|
G|----5-5-5-5-5-5-5-5-5-5--2-2-2-2-2-2-2-2-2-2--2-2-2-2-2-2-2-2-2-2---|
D|---3-3-3-3-3-3-3-3-3-3--0-0-0-0-0-0-0-0-0-0-------------------------|
A|--------------------------------------------------------------------|
D|--------------------------------------------------------------------|
guitar 1 continued
e|----1-1-1-1-1-1-1-1-1-1-|
B|------------------------|
G|---3-3-3-3-3-3-3-3-3-3--|
D|------------------------|
A|------------------------|
D|------------------------|
Guitar 2 intro
e|-----------------------------|
B|-----------------------------|
G|-----------------------------|
D|--3-----------------333----0-|
A|--3-----------------333----0-|
D|--3-----------------333----0-|
Guitar 1 pre-chorus
e|---------------------------------------------------------------------------|
B|---------------------------------------------------------------------------|
G|---------------------------------------------------------------------------|
D|---333-333-333-333-333-333-333-333-333-333-333-333-333-333-333-333-333-333-|
A|---333-333-333-333-333-333-333-333-333-333-333-333-333-333-333-333-333-333-|
D|---333-333-333-333-333-333-333-333-333-333-333-333-333-333-333-333-333-333-|
     ..  ..  ..  ..  ..  ..  ..  ..  ..  ..  ..  ..  ..  ..  ..  ..  ..  ..
Guitar 2 pre-chorus[2x]
e|--------------------------------------------------------------------------|
B|--------------------------------------------------------------------------|
G|--------------------------------------------------------------------------|
D|--------------------------------------------------------------------------|
A|---333333333333--000000000000--777777777777-888888888888------------------|
D|---333333333333--000000000000--777777777777-888888888888------------------|
guitar 1 Chorus
e|--------------------------------------------------------------------|
B|--------------------------------------------------------------------|
G|-------------------------------222222222222--333333333333-----------|
D|---333333333333--000000000000--222222222222--333333333333-----------|
A|---333333333333--000000000000--000000000000--111111111111-----------|
D|---333333333333--000000000000---------------------------------------|
guitar 2 chorus
e|--------------------------------------------------------------------|
B|--------------------------------------------------------------------|
G|-------------------------------222222222222--888888888888-----------|
D|---333333333333--777777777777--222222222222--888888888888-----------|
A|---333333333333--555555555555--000000000000--888888888888-----------|
D|---333333333333--000000000000---------------------------------------|
bridge guitar 1[4X]
e|--------------------------------------------------------------------|
B|--------------------------------------------------------------------|
G|-----9---7----10/12----9---7---3------------------------------------|
D|-----X---X-----X--X----X---X---X------------------------------------|
A|-----7---5-----8-10----7---5---1------------------------------------|
D|--------------------------------------------------------------------|
bridge guitar 2
e|-----------------------------8888888888888888-----------------|
B|-----------------------------5555555555555555-----------------|
G|--------------------------------------------------------------|
D|-----0-------0-------0----------------------------------------|
A|-----0-------0-------0----------------------------------------|
D|-----0-------0-------0----------------------------------------|
guitar 1[2x]
e|--------------------------------------------------|
B|--------------------------------------------------|
G|--------------------------------------555555------|
            
Hard to play? Try these video lessons and learn fast. | Correct




comments powered by Disqus
↑ Back to top | Tablatures and chords are parodies/interpretations of the original songs. You may use it for private study, scholarship, research or language learning purposes only