» » »

The Shooting Star That Destroyed Us All Tabs (ver.3)

Artists:  A B C D E F G H I J K L M N O P Q R S T U V W X Y Z # 

The Shooting Star That Destroyed Us All Tabs (ver.3)

A Static Lullaby
Rating:
5/5 (7 votes)

Hard to play? Try these video lessons and learn fast.
                THE SHOOTING STAR THAT DESTROYED US ALL
A STATIC LULLABY
AND DON`T FORGET TO BREATH

INTRO
e|------------------------------------------------|
B|------------------------------------------------|
G|------------------------------------------------|
D|---10-10-10-10-10-----7-7-7-7-7-----------------|
A|--8--8--8--8--8------5-5-5-5-5------------------|
E|------------------------------------------------|

e|------------------------------------------------|
B|------------------------------------------------|
G|------------------------------------------------|(x2)
D|---15--15--15--15--15------15--15--15--15-15----|
A| 12--12--12--12--12------13--13--13--13-13------|
E|------------------------------------------------|

VERSO/CORO

e|-------------------------|
B|-------------------------|
G|-------------------------|    
D|----5----2----9----10----|
A|----5----2----9----10----|
E|----3----0----7----8-----|

RIFF 1

e|----------------------------|-------------------|
B|--7--5---8--10--8--7/1------|--5-----3----------|
G|------------------------(X4)|----5-4------(X4)--|
D|----------------------------|-------------------|
A|----------------------------|-------------------|
E|----------------------------|-------------------|
                               apañando las 2 primeras veces
                               palm mute first 2 times

INTERLUDO BAJO

e|------------------------|
B|------------------------|
G|------------------------|
D|-------------------(x4)-|
A|--7--------5555---------|
E|-----0h2h3--------------|

RIFF 2

e|------------------------------------|
B|------------------------------------|
G|----9-----------7-----------9-------|
D|----9---0h2h3---7---0h2h3---9---(X8)|
A|----7---0h2h3---5---0h2h3---7-------|
E|--------0h2h3-------0h2h3-----------|

VERSO2

e|--------------------|----------------------------|
B|--------------------|----------------------------|
G|--------------------|---555-5-3-2-3-3-555--------|
D|---2---4---5---(X4)-|---555-5-3-2-3-3-555--(x4)--|
A|---2---4---5--------|---333-3-1-0-1-1-333--------|
E|---0---2---3--------|----------------------------|

e|--------------------|-------------------------|
B|--------------------|-------------------------|
G|--------------------|-------------------------|
D|---2---4---5---(x4)-|---2---10---2---10--(x4)-|
A|---2---4---5--------|---2---10---2---10-------|
E|---0---2---3--------|---0---8----0---8--------|

RIFF 3 (FINAL)
e|----------------555555553----------|
B|---787878787878--------------------|
G|-----------------------------------|
D|-----------------------------------|
A|-----------los 5 con distorsion----|
E|-----------------------------------|


la canciòn va:

*INTRO
*VERSO/CORO
*RIFF 1
*VERSO/CORO
*INTERLUDO BAJO
*RIFF 2
*VERSO 3
*INTRO
*VERSO/CORO
*RIFF3 (FINAL)

LIRICA
------

A star up in the sky 
A Poem to the dead
Let this mistake 
Bring a vivid crystal to her eyes 
So drain out my lungs 
Before the fluid brings a choke 
I can't inhale the sparkle of your voice 

A star up in the sky 
A poem to the death 
Let this mistake 
Bring a vivid crystal to her eyes 
So drain out my lungs 
Before the fluid brings a choke 
I can't inhale the sparkle of your voice 

Let me walk on high wire of rusty nails 
While barefoot shedding the flesh of our existance 

I don't want anybody to fall 

A star up in the sky 
A poem to the death 
Let this mistake 
Bring a vivid crystal to her eyes 
So drain out my lungs 
Before the fluid brings a choke 
I can't inhale the sparkle of your voice 

Now's it time 
Now's it time 

The more I try 
The more I lose 
But today 
Will you remember me ? 

But today 
Will you remember me ? 
But today 
Your eyes 

Your eyes 
They shine 
Your eyes 

Your eyes 
They shine 
Your eyes 

Your eyes 
They shine 
Your eyes 

Your eyes 
They shine 
Your eyes 

Your eyes 

Your eyes 
They shine 
Your eyes 

Walking home 
Street lights go out 

Walking home 
Street lights go out 

A star up in the sky 
A poem to the death 
Let this mistake 
Bring a vivid crystal to her eyes 
So drain out my lungs 
Before the fluid brings a choke 
I can't inhale the sparkle of your voice 
            
Hard to play? Try these video lessons and learn fast. | Correct




comments powered by Disqus
↑ Back to top | Tablatures and chords are parodies/interpretations of the original songs. You may use it for private study, scholarship, research or language learning purposes only