» » »

A Static Lullaby, The Shooting Star That Destroyed Us All Bass tabs (ver.2)

Artists:  A B C D E F G H I J K L M N O P Q R S T U V W X Y Z # 

The Shooting Star That Destroyed Us All Bass tabs (ver.2)

A Static Lullaby Tabs
Rating:
0/5 (0 votes)
The Shooting Star That Destroyed Us All lessons Tabs too difficult? Try these video lessons and learn fast
                ********************************************************************
   A STATIC LULLABY - THE SHOOTING STAR THAT DESTROYED US ALL
********************************************************************
this is an amazing song, A static lullaby rock, i definatly think
they r one of the best bands rite now, 


dropped d tuning ( D A D G )

INTROx1(the ---- are pauses)
G|-----------------------------------------------|
D|-----------------------------------------------|
A|-----------------------------------------------|
D|-3x-------------------33x----------------------|
x1
G|-------------------------------------------------|
D|-------------------------------------------------|
A|-------------------------------------------------|
D|-8/-33-33-333333-0000000000-7777777777-888888888-|
x1
G|----------------------------------------------|
D|----------------------------------------------|
A|----------------------------------------------|
D|-33-33-333333-0000000000-7777777777-888888888-|

CHORUSx2 (strumming pattern is slower than verse/intro)
G|-------------------------------------------|
D|---------------------------77-5------88-75-|
A|-------------------------------7-----------|
D|-333333333-000000000-777777-----88888------|

POST CHORUSx1
G|------------------------------------------------------|---------------------------|
D|------------------------------------------------------|---------------------------|
A|------------------------------------------------------|-5555555555555555555555555-|
D|-3-0~----3-0000000000000000000-3-00000000000000000000-|---------------------------|

CHORUSx2 (strumming pattern is slower than verse/intro)
G|---------------------------------------------|
D|---------------------------777-5------888-75-|
A|--------------------------------7------------|
D|-333333333-000000000-777777------88888-------|
Breakdown pt1x3  pt2x1
G|-------------|-------------|
D|-------------|-------------|
A|-5----3---55-|-5----3---5x-|
D|--02/3-3/2---|--02/3-3/2---|
then this x8
G|-------------|
D|-------------|
A|-5----3---55-|
D|--02/3-3/2---|
then thisx4
G|-----------|
D|-----------|
A|-----------|
D|-0~--2~-3~-|
thisx2
G|--------------------------------------------------|
D|--------------------------------------------------|
A|--------------------------------------------------|
D|-777777-75-3333-2-3333-5/777777-75-3333-2-3333-5/-|
then thisx4
G|-----------|
D|-----------|
A|-----------|
D|-0~--2~-3~-|
then this x2
G|----------------------------------------------------------|
D|----------------------------------------------------------|
A|---------------------------------------------------5------|
D|-000000000000-8888888888888-000000000000-88888-02/3-55/32-|

CHORUSx2 (strumming pattern is slower than verse/intro)
G|---------------------------------------------|
D|---------------------------777-5------888-75-|
A|--------------------------------7------------|
D|-333333333-000000000-777777------88888-------|
contdx2
G|--------------------------------------------|
D|--------------------------------------------|
A|--------------------------------------------|
D|-3333333333-0000000000-7777777777-888888888-|
end on this
G|----|
D|----|
A|----|
D|-3~-|
            
Submit corrections

comments powered by Disqus
↑ Back to top | A Static Lullaby Bass for The Shooting Star That Destroyed Us All. Lyrics for acoustic guitar and electric guitar. Tablatures and chords are parodies/interpretations of the original songs. You may use it for private study, scholarship, research or language learning purposes only