» » »

Love To Hate, Hate To Me Tabs (ver.1)

Artists:  A B C D E F G H I J K L M N O P Q R S T U V W X Y Z # 

Love To Hate, Hate To Me Tabs (ver.1)

A Static Lullaby
Rating:
0/5 (0 votes)

Hard to play? Try these video lessons and learn fast.
                Drop D tuning
X = palm muted
/ = slide up
\ = slide down
Figured let's get some more versions up in this piece.
Forewarning: For some chords I only put one strum, such as in the Chorus, that
doesn't mean play it once. Listen to the song and figure out the strum pattern.

Intro
e|----------------------------------------|
B|----------------------------------------|
G|----------------------------------------|
D|-0-----4-4-4-----0-----4-4-4------------|
A|-0-----4-4-4-----0-----4-4-4------------|
D|-0-----4-4-4-----0-----4-4-4------------|

Verse
e|-------------------------------------------------------------------------|
B|-------------------------------------------------------------------------|
G|-----2------4-----6------4-----2-----------------------------------------|
D|-0-0----0-0---0-0----0-0---0-0-----------4-4-4-4-4-4-4-4-4-4-------------|
A|-----------------------------------------4-4-4-4-4-4-4-4-4-4-------------|
D|-----------------------------------------4-4-4-4-4-4-4-4-4-4-------------|

e|-------------------------------------------------------------------------|
B|-------------------------------------------------------------------------|
G|-----2------4-----6------4-----2-----------------------------------------|
D|-0-0----0-0---0-0----0-0---0-0----------4-4-4-4-4--2-2-2-2-2-------------|
A|----------------------------------------4-4-4-4-4--2-2-2-2-2-------------|
D|----------------------------------------4-4-4-4-4--2-2-2-2-2-------------|

e|-------------------------------------------------------------------------|
B|-------------------------------------------------------------------------|
G|-----6-----7------9------7-----6-----------------------------------------|
D|-0-0---0-0----0-0----0-0---0-0---------4-4-4-4-4-4-4-4-4-4---------------|
A|---------------------------------------4-4-4-4-4-4-4-4-4-4---------------|
D|---------------------------------------4-4-4-4-4-4-4-4-4-4---------------|

e|-------------------------------------------------------------------------|
B|-------------------------------------------------------------------------|
G|-----6-----7------9------9/11--------------------------------------------|
D|-0-0---0-0----0-0----0-0--------------4-4-4-4-4--2-2-2-2-2---------------|
A|--------------------------------------4-4-4-4-4--2-2-2-2-2---------------|
D|--------------------------------------4-4-4-4-4--2-2-2-2-2---------------|

Pre-Chorus
e|-------------------------------------------------------------------------|
B|-------------------------------------------------------------------------|
G|----------------------------X-X------X-X------X-X------------------------|
D|-0-0-0-0-0-0-0-0-0-0----4-4-4-4--4-4-4-4--2-2-2-2--2-2-2-2---------------|
A|-0-0-0-0-0-0-0-0-0-0----4-4-4-4--4-4-4-4--2-2-2-2--2-2-2-2---------------|
D|-0-0-0-0-0-0-0-0-0-0----4-4-4-4--4-4-4-4--2-2-2-2--2-2-2-2---------------|


e|---------------------------------------------------------|
B|---------------------------------------------------------|
G|---------------------------------------------------------|
D|-0-0-0-0--7------------------7-----------------7---------|    repeat
A|-0-0-0-0--4------------------5-----------------5---------|
D|-0-0-0-0--4------------------5---------------------------|

Chorus
e|-------------------------------------------------|
B|-------------------------------------------------|
G|-------------------7---6-------------------------|
D|-5-----7-----4-----7---7-------------------------|   repeat
A|-5-----7-----4-----5---5-------------------------|
D|-5-----7-----4-----------------------------------|

Verse

Bridge  (get creative - for me I created distortion between each beats)
e|----------------------------------------------------------------|
B|----------------------------------------------------------------|
G|----------------------------------------------------------------|
D|-0-0--0-0--0--4-4--4-4--4--0-0--0-0--0--4-4--2-2--2-------------|   repeat
A|-0-0--0-0--0--4-4--4-4--4--0-0--0-0--0--4-4--2-2--2-------------|
D|-0-0--0-0--0--4-4--4-4--4--0-0--0-0--0--4-4--2-2--2-------------|

Chorus

Instrumental Break
e|-------------------------------------------|
B|-------------------------------------------|
G|-9--7--6—-6/7----2-------------------------|
D|-x--x--x--x-x----0-------------------------|   3x
A|-7--5--4—-4/5----0-------------------------|
D|-----------------0-------------------------|

e|-------------------------------------------|
B|-------------------------------------------|
G|-9--7--6—-6/7--4---------------------------|
D|-x--x--x--x-x--x---------------------------|
A|-7--5--4—-4/5--2---------------------------|
D|-------------------------------------------|

Solo
e|-----------------------------------------------------|
B|-3/5--3-------3\2--------3/5--3--------3/2-----------|  
G|-----------------------------------------------------|
D|-----------------------------------------------------|
A|-----------------------------------------------------|
D|-----------------------------------------------------|

e|--------------------------------3-2------------------|
B|------3/5—-3\2/3----7x-------------------------------|
G|-2/4-----------------------2/4-----------------------|
D|-----------------------------------------------------|   repeat this bar
A|-----------------------------------------------------|
D|-----------------------------------------------------|

Chorus

Verse

End
e|------------------------------------------|
B|------------------------------------------|
G|-6/7--6--2--------------------------------|
D|-x-x--x--0--------------------------------|
A|-4/5--4--0--------------------------------|
D|---------0--------------------------------|

It's 100% correct, I'm 100% sure. 
So don't bother sending corrections, but I do accept compliments tho...
            
Hard to play? Try these video lessons and learn fast. | Correct




comments powered by Disqus
↑ Back to top | Tablatures and chords are parodies/interpretations of the original songs. You may use it for private study, scholarship, research or language learning purposes only