» » »

A Static Lullaby, Love To Hate, Hate To Me Tabs (ver.2)

Artists:  A B C D E F G H I J K L M N O P Q R S T U V W X Y Z # 

Love To Hate, Hate To Me Tabs (ver.2)

A Static Lullaby Tabs
Rating:
0/5 (0 votes)
Love To Hate, Hate To Me lessons Tabs too difficult? Try these video lessons and learn fast
                Band: a static lullaby

Tuning:DADGBE
intro
e|----------------------------------------------------|
B|------7*---7*-------7*---7*-------------------------|
G|--------7*-------------7*---------------------------|
D|--0~-----------0~---------------slide/////----------|
A|--0~-----------0~-----------------------------------|
E|--0~-----------0~-----------------------------------|

verse
e|--------------------------------------------------------|
B|--------------------------------------------------------|
G|--------------------------------------------------------|
D|-----7-----9-----11-----9-----7---44444444--------------|
A|----------------------------------44444444--------------|
E|-0-0---0-0---0-0----0-0---0-0---0-44444444--------------|

e|----------------------------------------------------------|
B|----------------------------------------------------------|
G|----------------------------------------------------------|
D|-----7-----9-----11-----9-----7---44444444--22222222------|
A|----------------------------------44444444--22222222------|
E|-0-0---0-0---0-0----0-0---0-0---0-44444444--22222222------|

e|--------------------------------------------------------|
B|--------------------------------------------------------|
G|------6-----7-----9-----7-----6-------------------------|
D|----------------------------------4444444---------------|
A|----------------------------------4444444---------------|
E|--0-0---0-0---0-0---0-0---0-0---0-4444444---------------|

e|-----------------------------------------------------------|
B|-----------------------------------------------------------|
G|------6-----7-----9-----11~-9------------------------------|
D|----------------------------------4444444--22222-----------|
A|----------------------------------4444444--22222-----------|
E|--0-0---0-0---0-0---0-0-----------4444444--22222-----------|

Pre chorus
e|--------------------------------------------------------------|
B|--------------------------------------------------------------|
G|--------------------------- ---444444---14-14-12--11-11-------|
D|---0000—-44x44x-22x22x--00000--444444--------------------x2---|
A|---0000—-44x44x-22x22x--00000--222222---12-12-10---9--9-------|
E|---0000—-44x44x-22x22x--00000---------------------------------|

Chorus:  figure out strumming
e|-----------------------------------------------------------|
B|-----------------------------------------------------------|
G|-----------7--7--------------------------------------------|
D|--7--7--7--7--7----x2--------------------------------------|
A|--5--7--4--5--4--------------------------------------------|
E|--5--7--4--------------------------------------------------|

Repeat verse x1

And then
e|-----------------------------------------------------------|
B|-----------------------------------------------------------|
G|------------------------------------------7*---------------|
D|--00-00-00--44-44-44--00-00-00--44-22----------------------|
A|--00-00-00--44-44-44--00-00-00--44-22----------------------|
E|--00-00-00--44-44-44--00-00-00--44-22----------------------|

e|--------------------------------|----------------x-x-x-x-----|
B|-----8887778887778881010---x3---|---888888887777-x-x-x-x-----|
G|-----777777777777777-7-7--------|---777777777777-x-x-x-x-----|
D|--------------------------------|----------------x-x-x-x-----|
A|--------------------------------|----------------x-x-x-x-----|
E|--------------------------------|----------------x-x-x-x-----|

Repeat Chorus x2

e|------------------------------------------------------------|
B|------------------------------------------------------------|
G|---9--7--6—-6/7--------9--7--6—-6/7—-11~--9--7--6—-6/7------|
D|----------------0~-------------------------------------0~---|
A|---7--5--4—-4/5-0~-----7--5--4--4/5---9~--7--5--4—-4/5-0~---|
E|----------------0~-------------------------------------0~---|

e|-------------------------------------------------|
B|------------------7*~-rings out for a bit--------|
G|---9----7*---7*----------------------------------|
D|------7*---7*------------------------------------|
A|---7---------------------------------------------|
E|-------------------------------------------------|

The this part 2:26
e|------------------------------------------------------------------|
B|------------------------------------------------------------------|
G|----------------------------------------------------------------7-|
D|---99-9-99-9-99-9-99-9-99-9-99-9-99-9-99-9-99-9-99-9-99-9-99-9----|
A|---99-9-99-9-99-9-99-9-99-9-99-9-99-9-99-9-99-9-99-9-99-9-99-9--5-|
E|---99-9-99-9-99-9-99-9-99-9-99-9-99-9-99-9-99-9-99-9-99-9-99-9----|

e|---------------------------------------------------------|
B|---------------------------------------------------------|
G|--6-7-6-7-9-6-7-6-7-9-6-7-9---a lot of times-------------|
D|---------------------------------------------------------|
A|---------------------------------------------------------|
E|---------------------------------------------------------|
    The second guitar plays chorus over this...


Repeat chorus x2 and verse x1

end:
e|-----------------------------------------------------|
B|-----------------------------------------------------|
G|-----------------------------------------------------|
D|--2-4-2-0~~~~----------------------------------------|
A|--2-4-2-0~~~~----------------------------------------|
E|--2-4-2-0~~~~----------------------------------------|
            

comments powered by Disqus
↑ Back to top | A Static Lullaby Tabs for Love To Hate, Hate To Me. Lyrics for acoustic guitar and electric guitar. Tablatures and chords are parodies/interpretations of the original songs. You may use it for private study, scholarship, research or language learning purposes only