» » »

A Static Lullaby, Art Of Sharing Lovers Tabs (ver.1)

Artists:  A B C D E F G H I J K L M N O P Q R S T U V W X Y Z # 

Art Of Sharing Lovers Tabs (ver.1)

A Static Lullaby Tabs
 Rating:
3.3/5 (12 votes)
Art Of Sharing Lovers lessons Tabs too difficult? Try these video lessons and learn fast
                (Intro)
ok here we go final time im updating this, full song now no longer just the intro. Keep
mind im not the best guitar player and there are a lot of bits in this song that i
hear but i will do my best

Guitar 1
Intro/verse:
D-------------------------------------------------------------|
A-------------------------------------------------------------|
D11---------11---------11----------11----------11----------11-|
G---------9---------9-----------9-----------9-----------9-----|
B------10-------10----------10---------10-----------10--------|
e-------------------------------------------------------------|

D-------------------------------------------------------------|
A-------------------------------------------------------------|
D11-----------11---------11----------11----------11---------11|
G---------9---------9-----------9-----------9-----------9-----|
B------9--------9-----------9----------9------------9---------|
e-------------------------------------------------------------|
These two are repeated once for the intro and twice for the verse

D-------------------------------------------------------------|
A-------------------------------------------------------------|
D11-----------11---------11----------11----------11---------11|
G---------9---------9-----------9-----------9-----------9-----|
B------7--------7-----------7----------7------------7---------|
e-------------------------------------------------------------|

D-------------------------------------------------------------|
A-------------------------------------------------------------|
D11-----------11---------11----------11----------11---------11|
G---------9---------9-----------9-----------9-----------9-----|
B------9--------9-----------9----------9------------9---------|
e-------------------------------------------------------------|
As far as i can hear these two bits are played after the intro is played twice in the
im not sure what 2 bars comes after this for the next part of the verse

Verse:
D--0~-------444444-2-2-2-2|
A--0~-------444444-2-2-2-2|
D--0~-------444444-2-2-2-2|
G-------------------------|
B-------------------------|
e-------------------------|

D--4        7        0        7      6------|
A--4 (x16?) 7 (x16?) 0 (x16?) 7 (x8) 6 (x8)-|
D--4        7        0        7      6------|
G-------------------------------------------|
B-------------------------------------------|
e-------------------------------------------|

along the lines of the intro but im not sure sorry

Chorus:
D--4        7        0       2       -------|
A--4 (x16)  7 (x16)  0 (x16) 2 (x16) -------|
D--4        7        0       2       -------|
G-------------------------------------------|
B-------------------------------------------|
e-------------------------------------------|

D--4        7        9      -------|
A--4 (x16)  7 (x16)  9 (x32?)------|
D--4        7        9      -------|
G----------------------------------|
B----------------------------------|
e----------------------------------|

Verse:
D--4        7        0        7      6------|
A--4 (x16?) 7 (x16?) 0 (x16?) 7 (x8) 6 (x8)-|
D--4        7        0        7      6------|
G-------------------------------------------|
B-------------------------------------------|
e-------------------------------------------|

again sorry i cannot hear any of the bits between 1:40 and 1:51
ok from 1:51 sounds like this

D--0000-2222-4444-55---0000-2222-7777-55-|
A--0000-2222-4444-55---0000-2222-7777-55-|
D--0000-2222-4444-55---0000-2222-7777-55-|
G----------------------------------------|
B----------------------------------------|
e----------------------------------------|

D-------------------------------------------------------------|
A-------------------------------------------------------------|
D11---------11---------11----------11----------11----------11-|
G---------9---------9-----------9-----------9-----------9-----|
B------10-------10----------10---------10-----------10--------|
e-------------------------------------------------------------|

D---------------------------------------------|
A---------------------------------------------|
D--11-11-11--------9-9-9-12-12-12-11-11-11-11-|
G-----------9-9-9-----------------------------|
B---------------------------------------------|
e---------------------------------------------|
play this and the 0 2 4 5 bit twice
Then we have the chorus again

Chorus
D--4        7        0       2       -------|
A--4 (x16)  7 (x16)  0 (x16) 2 (x16) -------|
D--4        7        0       2       -------|
G-------------------------------------------|
B-------------------------------------------|
e-------------------------------------------|

D--4        7        9      -------|
A--4 (x16)  7 (x16)  9 (x36?)------|
D--4        7        9      -------|
G----------------------------------|
B----------------------------------|
e----------------------------------|

note the 9's are played a bit longer i just dont know how much longer

now thw bridge second guitar in the bridge is very strange but this is wat i got for lead

Bridge:

D-----------------------------------------------------------------------------|
A-----------------------------------------------------------------------------|
D-11-11-12-12-11-11-14-14-14-14-14-14-14-14-11-11-12-12-11-11-9-9-9-9-9-9-9-9-|
G-----------------------------------------------------------------------------|
B-----------------------------------------------------------------------------|
e-----------------------------------------------------------------------------|
Play this twice
dont know if that is how it sounds but u can still play it

D------------------------------------------------2-4-|
A------------------------------------------------2-4-|
D------------------------------------------------2-4-|
G----------------------------------------------------|
B-14 (many many times) --15 (also a few times -------|
e----------------------------------------------------|

Chorus again

Chorus:
D--4        7        0       2       -------|
A--4 (x16)  7 (x16)  0 (x16) 2 (x16) -------|
D--4        7        0       2       -------|
G-------------------------------------------|
B-------------------------------------------|
e-------------------------------------------|

D--4        7        9      -------|
A--4 (x16)  7 (x16)  9 (x36?)------|
D--4        7        9      -------|
G----------------------------------|
B----------------------------------|
e----------------------------------|

Intro played a few times for outro

Guitar 2

Intro:
D-4       7 ------|
A-4 (x16) 7 (x16)-|
D-4       7 ------|
G-----------------|
B-----------------|
e-----------------|
All palm muted

Verse:
D-4------7------4------7------0------4------7------6------|
A-4(x16)-7(x16)-4(x16)-7(x16)-0(x16)-4(x16)-7(x16)-6(x16)-|
D-4------7------4------7------0------4------7------6------|
G---------------------------------------------------------|
B---------------------------------------------------------|
e---------------------------------------------------------|
no plam muting

D--0~-------444444-2-2-2-2|
A--0~-------444444-2-2-2-2|
D--0~-------444444-2-2-2-2|
G-------------------------|
B-------------------------|
e-------------------------|

D--4        7        0        7      6------|
A--4 (x16?) 7 (x16?) 0 (x16?) 7 (x8) 6 (x8)-|
D--4        7        0        7      6------|
G-------------------------------------------|
B-------------------------------------------|
e-------------------------------------------|


D-4------7------4------7------6------|
A-4(x16)-7(x16)-4(x16)-7(x8)--6(x8)--|
D-4------7------4------7------6------|
G------------------------------------|
B------------------------------------|
e------------------------------------|
play this twice

Chorus:
D--4--------7--------0-------2--------------|
A--4 (x16)  7 (x16)  0 (x16) 2 (x16) -------|
D--4--------7--------0-------2--------------|
G-------------------------------------------|
B-------------------------------------------|
e-------------------------------------------|

D--4--------7--------9-------------|
A--4 (x16)  7 (x16)  9 (x32?)------|
D--4--------7--------9-------------|
G----------------------------------|
B----------------------------------|
e----------------------------------|

Verse:
D--4--------7--------0--------7------6------|
A--4 (x16?) 7 (x16?) 0 (x16?) 7 (x8) 6 (x8)-|
D--4--------7--------0--------7------6------|
G-------------------------------------------|
B-------------------------------------------|
e-------------------------------------------|
play this twice

D--0000-2222-4444-55---0000-2222-7777-55---4-------7------|
A--0000-2222-4444-55---0000-2222-7777-55---4(x16)--7(x16)-|
D--0000-2222-4444-55---0000-2222-7777-55---4-------7------|
G---------------------------------------------------------|
B---------------------------------------------------------|
e---------------------------------------------------------|
play this also twice

Chorus:
D--4--------7--------0-------2--------------|
A--4 (x16)  7 (x16)  0 (x16) 2 (x16) -------|
D--4--------7--------0-------2--------------|
G-------------------------------------------|
B-------------------------------------------|
e-------------------------------------------|

D--4--------7--------9-------------|
A--4 (x16)  7 (x16)  9 (x32?)------|
D--4--------7--------9-------------|
G----------------------------------|
B----------------------------------|

this bridge is really wierd and hard to hear but this is what i got for guitar 2 bridge
Bridge:
D-7-7--7-7--9-9--7-7--7-7--5-5-|
A-7-7--7-7--9-9--7-7--7-7--5-5-|
D-7-7--7-7--9-9--7-7--7-7--5-5-|
G------------------------------|
B------------------------------|
e------------------------------|
repeat four times but last time on the 5 slide down to one then play this:

D-0----------------------4-2|
A-0-(many many times)----4-2|
D-0----------------------4-2|
G---------------------------|
B---------------------------|
e---------------------------|

Chorus:
D--4--------7--------0-------2--------------|
A--4 (x16)  7 (x16)  0 (x16) 2 (x16) -------|
D--4--------7--------0-------2--------------|
G-------------------------------------------|
B-------------------------------------------|
e-------------------------------------------|

D--4--------7--------9-------------|
A--4 (x16)  7 (x16)  9 (x32?)------|
D--4--------7--------9-------------|
G----------------------------------|
B----------------------------------|
e----------------------------------|

Outro:
D-4------7~-|
A-4(x16)-7~-|
D-4------7~-|
G-----------|
B-----------|
e-----------|

well thats the end of a very long tab it has taken me a long time so enjoy it any
time like i did today i may make another a static lullaby tab from the new album well 
rate peace out!
            
Submit corrections

comments powered by Disqus
↑ Back to top | A Static Lullaby Tabs for Art Of Sharing Lovers. Lyrics for acoustic guitar and electric guitar. Tablatures and chords are parodies/interpretations of the original songs. You may use it for private study, scholarship, research or language learning purposes only