» » »

A Static Lullaby, Art Of Sharing Lovers Tabs (ver.2)

Artists:  A B C D E F G H I J K L M N O P Q R S T U V W X Y Z # 

Art Of Sharing Lovers Tabs (ver.2)

A Static Lullaby Tabs
 Rating:
4/5 (4 votes)
Art Of Sharing Lovers lessons Tabs too difficult? Try these video lessons and learn fast
                -------------------------------------------------------------------------------
                             Art of Sharing Lovers - A Static Lullaby
-------------------------------------------------------------------------------

Tuning: Drop D

Hey guys! I decided to tab out this song because the other tab has the strings upside 
down, which makes it really confusing to read.
I also added in the extra riffs from this song, so this tab should sound complete. 
Please leave any comments and rate!
In doing so, I will give you an internet hug and may even do a cover of this song :) 
Thanks for checking it out!

Intro
e|--------------------------------------------------------------------|
B|---10------10------10------10------10-------------------------------|
G|------9-------9-------9-------9-------9-----------------------------|
D|11------11------11------11------11------11--------------------------|
A|--------------------------------------------------------------------|
D|--------------------------------------------------------------------|

e|--------------------------------------------------------------------|
B|---9------9------9------9------9------------------------------------|
G|-----9------9------9------9------9----------------------------------|
D|11-----11-----11-----11-----11-----11-------------------------------|
A|--------------------------------------------------------------------|
D|--------------------------------------------------------------------|
repeat these two bars twice

e|--------------------------------------------------------------------|
B|---10------10------10------10------10-------------------------------|
G|------9-------9-------9-------9-------9-----------------------------|
D|11------11------11------11------11------11--------------------------|
A|--------------------------------------------------------------------|
D|--------------------------------------------------------------------|

e|--------------------------------------------------------------------|
B|---9------9-------------7------7------------------------------------|
G|-----9------9----9----9------9--------------------------------------|
D|11-----11-----11---11-----11----------------------------------------|
A|--------------------------------------------------------------------|
D|--------------------------------------------------------------------|

e|--------------------------------------------------------------------|
B|---7------7------7------7------7------------------------------------|
G|-----9------9------9------9------9----------------------------------|
D|11-----11-----11-----11-----11-----11-------------------------------|
A|--------------------------------------------------------------------|
D|--------------------------------------------------------------------|

e|--------------------------------------------------------------------|
B|-----10------10------10------10------10-----------------------------|
G|---9-------9-------9-------9-------9--------------------------------|
D|11------11------11------11------11----------------------------------|
A|--------------------------------------------------------------------|
D|--------------------------------------------------------------------|

e|--------------------------------------------------------------------|
B|---7------7------7------7------7------------------------------------|
G|-----9------9------9------9------9----------------------------------|
D|11-----11-----11-----11-----11-----11-------------------------------|
A|--------------------------------------------------------------------|
D|--------------------------------------------------------------------|

e|--------------------------------------------------------------------|
B|---9------9-------------7-------7-----------------------------------|
G|-----9------9----9----9------9--------------------------------------|
D|11-----11-----11---11-----11----------------------------------------|
A|--------------------------------------------------------------------|
D|--------------------------------------------------------------------|

Verse 1
e|--------------------------------------------------------------------|
B|--------------------------------------------------------------------|
G|--------------------------------------------------------------------|
D|4--4444--2-2-2-2----------------------------------------------------|
A|4--4444--2-2-2-2----------------------------------------------------|
D|4--4444--2-2-2-2----------------------------------------------------|

e|--------------------------------------------------------------------|
B|--------------------------------------------------------------------|
G|--------------------------------------------------------------------|
D|0x---4x----0x----7777777-6-6-6-6------------------------------------|
A|0x---4x----0x----7777777-6-6-6-6------------------------------------|
D|0x---4x----0x----7777777-6-6-6-6------------------------------------|
the muted notes are each played 16 times

e|--------------------------------------------------------------------|
B|10-9-----------10-9-----------10-9-10-9-----------------------------|
G|-----11-9-9---------11-9-9------------------------------------------|
D|------------11-------------11---------------------------------------|
A|--------------------------------------------------------------------|
D|--------------------------------------------------------------------|
repeat this bar three times

e|--------------------------------------------------------------------|
B|--------------------------------------------------------------------|
G|--------------------------------------------------------------------|
D|11-11-11-14-14-14-9-9-9-12-12-12-11-11-11---------------------------|
A|--------------------------------------------------------------------|
D|--------------------------------------------------------------------|

Chorus
e|--------------------------------------------------------------------|
B|------------------------------------------------10------9-----------|
G|---------------------------------------------------9------9---------|
D|4-------7-------0-------4-------7-------0------------11-----11------|
A|4--x16--7--x16--0--x32--4--x16--7--x16--0--x24----------------------|
D|4-------7-------0-------4-------7-------0---------------------------|

Verse 2
e|--------------------------------------------------------------------|
B|--------------------------------------------------------------------|
G|--------------------------------------------------------------------|
D|4x-------0x-------4x-------7777777-2-2-2-2--------------------------|
A|4x--x16--0x--x16--4x--x16--7777777-2-2-2-2--------------------------|
D|4x-------0x-------4x-------7777777-2-2-2-2--------------------------|

e|--------------------------------------------------------------------|
B|10-10-10-9-10-12-10-9--(x3)--12-10---12-10---12-10------------------|
G|-----------------------------------9-------9------------------------|
D|--------------------------------------------------------------------|
A|--------------------------------------------------------------------|
D|--------------------------------------------------------------------|

e|--------------------------------------------------------------------|
B|10-10-10-9-10-12-10-9--(x2)-----------------------------9-10-9------|
G|-----------------------------11-9----11-9----11-9-9-9-9--------11-9-|
D|----------------------------------11------11------------------------|
A|--------------------------------------------------------------------|
D|--------------------------------------------------------------------|

e|--------------------------------------------------------------------|
B|--------------------------------------------------------------------|
G|--------------------------------------------------------------------|
D|0000-9999-11111111-121212-2222-9999-12121212-111111-----------------|
A|0000-9999-11111111-121212-2222-9999-12121212-111111-----------------|
D|0000-9999-11111111-121212-2222-9999-12121212-111111-----------------|
these are 11's, not 1's!

e|--------------------------------------------------------------------|
B|10-9-----------10-9-----------10-9-10-9-----------------------------|
G|-----11-9-9---------11-9-9------------------------------------------|
D|------------11-------------11---------------------------------------|
A|--------------------------------------------------------------------|
D|--------------------------------------------------------------------|

e|--------------------------------------------------------------------|
B|--------------------------------------------------------------------|
G|--------------------------------------------------------------------|
D|11-11-11-14-14-14-9-9-9-12-12-12-11-11-11---------------------------|
A|--------------------------------------------------------------------|
D|--------------------------------------------------------------------|
repeat the last 3 bars twice

Chorus
e|--------------------------------------------------------------------|
B|--------------------------------------------------------------------|
G|--------------------------------------------------------------------|
D|4-------7-------0---------------------------------------------------|
A|4--x16--7--x16--0--x32----------------------------------------------|
D|4-------7-------0---------------------------------------------------|

Bridge
e|--------------------------------------------------------------------|
B|--------------------------------------------------------------------|
G|--------------------------------------------------------------------|
D|111111-000-111111-000-1111-00-111111-000-121212-000-1212-00---------|
A|111111-000-111111-000-1111-00-111111-000-121212-000-1212-00---------|
D|111111-000-111111-000-1111-00-111111-000-121212-000-1212-00---------|
repeat this bar twice (note, they are once again 11's)

e|--------------------------------------------------------------------|
B|--------------------------------------------------------------------|
G|--------------------------------------------------------------------|
D|111111-000-111111-000-1111-00-141414-000-161616-000-1616-00---------|
A|111111-000-111111-000-1111-00-141414-000-161616-000-1616-00---------|
D|111111-000-111111-000-1111-00-141414-000-161616-000-1616-00---------|
these are 11's yo!

e|--------------------------------------------------------------------|
B|--------------------------------------------------------------------|
G|141414--------141414--------1414------------------------------------|
D|141414-121212-141414-121212-1414-1212-------------------------------|
A|121212-121212-121212-121212-1212-1212-------------------------------|
D|-------121212--------121212------1212-------------------------------|

e|------------------------------16b-----------------------------------|
B|------------------14br----------------------------------------------|
G|--------------------------------------------------------------------|
D|4/5-4/5-4/5-4/5-5--------------------0-2----------------------------|
A|4/5-4/5-4/5-4/5-5--------------------0-2----------------------------|
D|4/5-4/5-4/5-4/5-5--------------------0-2----------------------------|

Chorus
e|--------------------------------------------------------------------|
B|---------------------------------------------------10------9--------|
G|------------------------------------------------------9------9------|
D|4-------7-------0-------4-------7-------0-------11------11-----11---|
A|4--x16--7--x16--0--x32--4--x16--7--x16--0--x24----------------------|
D|4-------7-------0-------4-------7-------0---------------------------|

Outro
e|--------------------------------------------------------------------|
B|---10------10------9------9------10---------------------------------|
G|------9-------9------9------9-------9-------------------------------|
D|11------11------11-----11-----11------11----------------------------|
A|--------------------------------------------------------------------|
D|--------------------------------------------------------------------|

************************************

| /   slide up
| \   slide down
| h   hammer-on
| p   pull-off
| ~   vibrato
| +   harmonic
| x   Mute note
| b   Bend
| pb  Pre-bend
| br  Bend release
| pbr Pre-bend release
| brb Bend release bend

************************************
            
Submit corrections

comments powered by Disqus
↑ Back to top | A Static Lullaby Tabs for Art Of Sharing Lovers. Lyrics for acoustic guitar and electric guitar. Tablatures and chords are parodies/interpretations of the original songs. You may use it for private study, scholarship, research or language learning purposes only