» » »

A Skylit Drive, Drow The City Tabs (ver.1)

Artists:  A B C D E F G H I J K L M N O P Q R S T U V W X Y Z # 

Drow The City Tabs (ver.1)

A Skylit Drive Tabs
Rating:
1/5 (1 vote)
Drow The City lessons Tabs too difficult? Try these video lessons and learn fast
                A SKYLIT DRIVE - DROWN THE CITY

DROP D, AND PLAY ^^ ÑII

INTRO
LIE       TO ME        
|---------------------------------------------|
|---------------------------------------------|
|--9-9-9---9-9---9-9---5-5-5---5-5---7-7------|
|--9-9-9---9-9---9-9---5-5-5---5-5---7-7------|
|--7-7-7---7-7---7-7---3-3-3---3-3---5-5------|
|---------------------------------------------|

LIE...
|--------------------------------------------------------------------------|
|--8-8-8-8-8-8-8-8-7-7-7-7-12-12-12-12-12-12-12-10-10-10-10-10-7-7-7-7-7---|
|--X-X-X-X-X-X-X-X-X-X-X-X-X--X--X--X--X--X--X--X--X--X--X--X--X-X-X-X-X---|
|--5-5-5-5-5-5-5-5-4-4-4-4-9--9--9--9--9--9--9--7--7--7--7--7--4-4-4-4-4---|
|--------------------------------------------------------------------------|
|--------------------------------------------------------------------------|

VERSE
FORGET...      I HAVE..
|------------10--10--10--10--10------------------10--10--10--10--10------|
|--------------7---7---7---7---7-------------------7---7---7---7---7-----|
|---------------7---7---7---7---7-------------------7---7---7---7---7----|
|--2---------------------------------2--------2--------------------------|
|--2---------------------------------2---2-2--2--------------------------|
|--0---------------------------------0---0-0--0--------------------------|
                                         . .

THE PLACE ...
|----------------------------------------------------------------|        /
|----------------------------------------------------------------|        /
|-----------5-5-----------5-7-----------5-5-----------5-7--------|        /
|-----------5-5-----------5-7-----------5-5-----------5-7--------|        /
|--2-2-2-2--3-3--2-2-2-2--3-5--2-2-2-2--3-3--2-2-2-2--3-5--------|        /
|--0-0-0-0-------0-0-0-0-------0-0-0-0-------0-0-0-0-------------|        /
   . . . .       . . . .       . . . .       . . . .                      /
                                                                          / [x2] 
THE ROPES...                                                              /
|-----------------------------------------------------------------------| /
|-----------------------------------------------------------------------| /
|--9-9-9-11-11-11-12--12--12--14--14--14--16--14--12--11-12--11-9-11----| /
|--X-X-X-X--X--X--X---X---X---X---X---X---X---X---X---X--X---X--X-X-----| /
|--7-7-7-9--9--9--10--10--10--12--12--12--14--12--10--9--10--9--7-9-----| /
|-----------------------------------------------------------------------| /


PRE-CHORUS
|--15-0-14-0------14-12--|
|------------15-0--------|
|------------------------|
|------------------------|
|------------------------|
|------------------------|

CHORUS
SO NOW YOU....
|--------------------------------------------------15-0-14-0------14-12--| /
|------------------------------------------------------------15-0--------| /
|--------------5-5-5-5-5-5-------------7-7-7-7-7-7-----------------------| / [x2]
|--2-2-2-2-2-2-5-5-5-5-5-5-5-5-5-5-5-5-7-7-7-7-7-7-----------------------| /
|--2-2-2-2-2-2-3-3-3-3-3-3-5-5-5-5-5-5-5-5-5-5-5-5-----------------------| /
|--0-0-0-0-0-0-------------3-3-3-3-3-3-----------------------------------| /


VERSE
I WONT DIE...
|---------------------------------------------|  /
|-------------------------12-10-8-7-8---------|  /
|-------------------------X--X--X-X-X---------|  / 
|--2-2--------2-2---------9--7--5-4-5---------|  / [x2]
|--2-2--------2-2-----------------------------|  /
|--0-0--------0-0-----------------------------|  /
   . .        . .                                /

THE ONLY PROBLEM...
|----------------------------------------------------------------|
|------------------------10-10-10-10-10-10-10-10-10-10-10--------|
|--9-9-9-9-9-9-9-9-9-9-9-X--X--X--X--X--X--X--X--X--X--X---------|
|--X-X-X-X-X-X-X-X-X-X-X-7--7--7--7--7--7--7--7--7--7--7---------|
|--7-7-7-7-7-7-7-7-7-7-7-----------------------------------------|
|----------------------------------------------------------------|

THE PLACE ...
|----------------------------------------------------------------|        
|----------------------------------------------------------------|        
|-----------5-5-----------5-7-----------5-5-----------5-7--------|        
|-----------5-5-----------5-7-----------5-5-----------5-7--------|        
|--2-2-2-2--3-3--2-2-2-2--3-5--2-2-2-2--3-3--2-2-2-2--3-5--------|        
|--0-0-0-0-------0-0-0-0-------0-0-0-0-------0-0-0-0-------------|        
   . . . .       . . . .       . . . .       . . . .                      
                                                                         
THE ROPES...                                                              
|-----------------------------------------------------------------------| 
|-----------------------------------------------------------------------| 
|--9-9-9-11-11-11-12--12--12--14--14--14--16--14--12--11-12--11-9-11----| 
|--X-X-X-X--X--X--X---X---X---X---X---X---X---X---X---X--X---X--X-X-----| 
|--7-7-7-9--9--9--10--10--10--12--12--12--14--12--10--9--10--9--7-9-----| 
|-----------------------------------------------------------------------| 


PRE-CHORUS
|--15-0-14-0------14-12--|
|------------15-0--------|
|------------------------|
|------------------------|
|------------------------|
|------------------------|

CHORUS
SO NOW YOU....
|--------------------------------------------------15-0-14-0------14-12--| /
|------------------------------------------------------------15-0--------| /
|--------------5-5-5-5-5-5-------------7-7-7-7-7-7-----------------------| / [x2]
|--2-2-2-2-2-2-5-5-5-5-5-5-5-5-5-5-5-5-7-7-7-7-7-7-----------------------| /
|--2-2-2-2-2-2-3-3-3-3-3-3-5-5-5-5-5-5-5-5-5-5-5-5-----------------------| /
|--0-0-0-0-0-0-------------3-3-3-3-3-3-----------------------------------| /


VERSE
I WONT DIE...
|---------------------------------------------|  /
|-------------------------12-10-8-7-8---------|  /
|-------------------------X--X--X-X-X---------|  / 
|--2-2--------2-2---------9--7--5-4-5---------|  / [x2]
|--2-2--------2-2-----------------------------|  /
|--0-0--------0-0-----------------------------|  /
   . .        . .                                /

I WONT DIE...
|----------------------------------------------------------------|
|--------------------------------------------12-10-8-7-8---------|
|-------------------9------------------------X--X--X-X-X---------|
|--2-2-2-2-2-2------X------2-2-2-2-2-2-------9--7--5-4-5---------|
|--2-2-2-2-2-2------7------2-2-2-2-2-2---------------------------|
|--0-0-0-0-0-0-------------0-0-0-0-0-0---------------------------|
   . . . . . .             . . . . . .

I WONT DIE...
|----------------------------------------------------------------|
|--------------------------------------------12-10-8-7-8---------|
|-------------------12-----------------------X--X--X-X-X---------|
|--2-2-2-2-2-2------X------2-2-2-2-2-2-------9--7--5-4-5---------|
|--2-2-2-2-2-2------9------2-2-2-2-2-2---------------------------|
|--0-0-0-0-0-0-------------0-0-0-0-0-0---------------------------|
   . . . . . .             . . . . . .

THE ONLY PROBLEM...
|----------------------------------------------------------------|
|------------------------10-10-10-10-10-10-10-10-10-10-10--------|
|--9-9-9-9-9-9-9-9-9-9-9-X--X--X--X--X--X--X--X--X--X--X---------|
|--X-X-X-X-X-X-X-X-X-X-X-7--7--7--7--7--7--7--7--7--7--7---------|
|--7-7-7-7-7-7-7-7-7-7-7-----------------------------------------|
|----------------------------------------------------------------|

PRE-CHORUS
|--15-0-14-0------14-12--|
|------------15-0--------|
|------------------------|
|------------------------|
|------------------------|
|------------------------|

CHORUS
SO NOW YOU....
|--------------------------------------------------15-0-14-0------14-12--| /
|------------------------------------------------------------15-0--------| /
|--------------5-5-5-5-5-5-------------7-7-7-7-7-7-----------------------| / [x2]
|--2-2-2-2-2-2-5-5-5-5-5-5-5-5-5-5-5-5-7-7-7-7-7-7-----------------------| /
|--2-2-2-2-2-2-3-3-3-3-3-3-5-5-5-5-5-5-5-5-5-5-5-5-----------------------| /
|--0-0-0-0-0-0-------------3-3-3-3-3-3-----------------------------------| /

SO NOW YOU....
|--------------------------------------------------15-0-14-0------14-12--|
|------------------------------------------------------------15-0--------|
|--------------5-5-5-5-5-5-------------7-7-7-7-7-7-----------------------|
|--------------5-5-5-5-5-5-5-5-5-5-5-5-7-7-7-7-7-7-----------------------|
|--------------3-3-3-3-3-3-5-5-5-5-5-5-5-5-5-5-5-5-----------------------|
|--------------------------3-3-3-3-3-3-----------------------------------|


|--------------------------------------------------15-0-14-0------14-12--| 
|------------------------------------------------------------15-0--------| 
|--------------5-5-5-5-5-5-------------7-7-7-7-7-7-----------------------| 
|--2-2-2-2-2-2-5-5-5-5-5-5-5-5-5-5-5-5-7-7-7-7-7-7-----------------------|
|--2-2-2-2-2-2-3-3-3-3-3-3-5-5-5-5-5-5-5-5-5-5-5-5-----------------------|
|--0-0-0-0-0-0-------------3-3-3-3-3-3-----------------------------------|


OUTHRO
IMMERSE ME
|--------------------------------------------------------------------| /
|--------8--8--8--------8--8--8--------8--8--8-----------------------| /
|--------11-11-11-------11-11-11-------11-11-11---5-5-5-5--7-7-7-7---| /
|--2-2-------------2-2------------2-2-------------5-5-5-5--7-7-7-7---| / [x2]
|--2-2-------------2-2------------2-2-------------3-3-3-3--5-5-5-5---| /
|--0-0-------------0-0------------0-0--------------------------------| /


IF YOU WANT...
|----------------------------------------------------------------------| /
|---------8--8--8---------8--8--8---------8--8--8----------------------| /
|---------11-11-11--------11-11-11--------11-11-11---5-5-5-5--7-7-7-7--| /
|--2-2-2-2---------2-2-2-2---------2-2-2-2-----------5-5-5-5--7-7-7-7--| / [x2]
|--2-2-2-2---------2-2-2-2---------2-2-2-2-----------3-3-3-3--5-5-5-5--| /
|--0-0-0-0---------0-0-0-0---------0-0-0-0-----------------------------| /
   . . . .         . . . .         . . . .

|-------------------------------------|
|-------------------------------------|
|---5-5-5-5--7-7-7-7------------------|
|---5-5-5-5--7-7-7-7---------2--------|
|---3-3-3-3--5-5-5-5---------2--------| 
|----------------------------0--------|


AND THTS ALL   WIWI THE VIDEO!!


THANX  FREAKY WI ^^
            
Submit corrections

comments powered by Disqus
↑ Back to top | A Skylit Drive Tabs for Drow The City. Lyrics for acoustic guitar and electric guitar. Tablatures and chords are parodies/interpretations of the original songs. You may use it for private study, scholarship, research or language learning purposes only