>
 >
City On The Edge Of Forever

City On The Edge Of Forever Guitar Tabs

A Skylit Drive - City On The Edge Of Forever chords, tabs, tablatures, lyrics

Guitar lessons | Add/correct | Request | Top 50 tabs Artists:  A B C D E F G H I J K L M N O P Q R S T U V W X Y Z 0-9

City On The Edge Of Forever Guitar Tabs – A Skylit Drive

CD, Sheet music, Poster

Do you like City On The Edge Of Forever? Share with your friends now
Tabs
pls rate and comment...

(2)///////////////-figer slide start from 2nd fret to higher note(14th)
(14)\\\\\\\\-pick slide from tyhe 14th fter to lower note(2)
#(#)- # is delay...not picked...if dont have delay...you may use to pick it... like what
used to do..coz i dont have a delay pedal when i was tabbing it...

Intro-
GtrI
|--------------------------------------------------------|
|--------------------------------------------------------|
|---------------------11(11)-12(12)--11(11)--------------|
|-----9(9)-12(12)-9(9)-----------------------12(12)------|8x
|-7(7)---------------------------------------------------|
|--------------------------------------------------------|

-------------------------|
-------------------------|
-6h7p6-------------------|
------7/9--4/7-----------|
----------5--------------|
-------------------------|

GtrII
|--------------------------------------------------------|
|--------------------------------------------------------|
|-11~--------11~---------7~--------7~--------11~^--------|
|-9~---------9~----------5~--------5~--------------------|
|-9~---------9~----------5~--------5~--------------------|
|-9~---------9~----------5~--------5~--------------------|


GtrI
|-----------------------------------------------------------------------|
|------------------------------------------------10---10---10---10------|
|--------------------------------------------------11--11---11---11-----|
|-9-9-9-9-9-9-9--7h9999999--5555555-0-0-0-0-0-0-0----12--12---12---12---|
|-9-9-9-9-9-9-9-------------5555555-0-0-0-0-0-0-0-----------------------|
|-9-9-9-9-9-9-9-------------5555555-0-0-0-0-0-0-0-----------------------|

|-----------------------------------------------------------------------|
|-----------------------------------------------------------------------|
|-11111111111111-----------12121212121212-7-7-7-7-7-7-7-7-9-9-9-9-9-9-9-|
|-9-9-9-9-9-9-9--5-5-5------------------------------------7-7-7-7-7-7-7-|
|-9-9-9-9-9-9-9--5-5-5-----10101010101010-5-5-5-5-5-5-5-5-7-7-7-7-7-7-7-|
|-9-9-9-9-9-9-9--5-5-5------------------------------------7-7-7-7-7-7-7-|

GtrI(not sure)
|--------------------------------------------------------|
|--------------------------------------------------------|
|---------------------11(11)-12(12)--11(11)--------------|
|-----9(9)-12(12)-9(9)-----------------------12(12)------|8x
|-7(7)---------------------------------------------------|
|--------------------------------------------------------|

|--------------------------------------------------------|
|--------------------------------------------------------|
|--------------------------------------------------------|
|--------------------------------------------------------|
|--9999--999--999--5555--------9999--999--999--5555------|
|--9999--999--999--5555--------9999--999--999--5555------|
   ****  ***  ***  ****        ****  ***  ***  ****
]
Refrain-2x
GtrI
|--------------------------------------------------------------------------------|
|-------1010-12~--10--(10)--10-------------------1010-12~--10h12-----------------|
|-------1111-12~----10--(10)---------------------1111-12~-------11---------------|
|------------------------------12-11-12~--------------------------12--12-11-12~--|2x
|-7/9-9------------------------------------7/9-9---------------------------------|
|--------------------------------------------------------------------------------|
GtrII
|--------------------------------------------------------------------------|
|--------------------------------------------------------------------------|
|--------------------------------------------------------------------7~(7)-|2x
|-------7-7-5~--7-9-7-----7---7~------------7-7-5~--7-9-7-----7---7~-------|
|-7/9-9-----5~--------9-7---9---------7/9-9-----5~--------9-7---9----------|
|-----------5~----------------------------------5~-------------------------|

Chorus-Do intro prt2 2x

Interlude-
GtrI
|---------------------------------------------------------------------------------|
|---------------------------------------------------------------------------------|
|-------------------------------11-11-7-7~-11-11-7-7~-----------------------------|
|-9-s-2-s-9~-------------------------------------------9-s-2-s-9~-(2)///////------|
|-9-s-2-s-9~--------------------9--9--5-5~-9--9--5-5~--9-s-2-s-9~-(2)///////------|
|-9-s-2-s-9~-(2)///////////////------------------------9-s-2-s-9~-(2)///////------|

GtrII
|---------------------------------------------------------------------------------|
|---------------------------------------------------------------------------------|
|---------------------------------------------------------------------------------|
|---------------------------------------------------------------------------------|
|-9-s-2-s-9~-------------------------------------------9-s-2-s-9~-----------------|
|-9-s-2-s-9~-------------------------------------------9-s-2-s-9~----(14)\\\\\\\\-|

|--------------------------------------------------------|
|--------------------------------------------------------|
|--------------------------------------------------------|
|-9-s-2-s-9~---------------------------------------------|
|-9-s-2-s-9~---------------------------------------------|
|-9-s-2-s-9~---(2)///////--------------------------------|

Do Refrain-
Do Chorus-2x
GtrI
|--------------------------------------------------------|
|--------------------------------------------------------|
|---------------------11(11)-12(12)--11(11)--------------|
|-----9(9)-12(12)-9(9)-----------------------12(12)------|8x
|-7(7)---------------------------------------------------|
|--------------------------------------------------------|
GtrII
|--------------------------------------------------------|
|--------------------------------------------------------|
|--------------------------------------------------------|
|-9~---------9~----------9~--------9~----------9~--------|
|-9~---------9~----------9~--------9~----------9~--------|
|-9~---------9~----------9~--------9~----------9~--------|





Comments


Popular A Skylit Drive tabs & chords
Hey Nightmare, Where Did You Get Them Teeth? Bass Tabs
A Reason For Broken Wings Chords
Acording To Columbus Intro Tabs
All Stars Diaries Tabs
Drown The City 1 Tabs
Eva The Carrier Tabs
Hey Nightmare, Where Did You Get Them Teeth? 1 Tabs
Those Cannons Could Sink A Ship 1 Tabs
All It Takes For Your Dreams To Come True Ukulele
Knights Of The Round Ukulele


Song lyrics



↑ Back to top | Tablatures and chords are parodies/interpretations of the original songs. You may use it for private study, scholarship, research or language learning purposes only
© 2014 AZChords.com Contact us | Privacy policy | DMCA | Add/correct tabs | Request tabs | Top 50 tabs