>
 >
Balance

Balance Guitar Tabs

A Skylit Drive - Balance chords, tabs, tablatures, lyrics

Guitar lessons | Add/correct | Request | Top 50 tabs Artists:  A B C D E F G H I J K L M N O P Q R S T U V W X Y Z 0-9

Balance Guitar Tabs – A Skylit Drive

CD, Sheet music, Poster

Do you like Balance? Share with your friends now
Tabs
Balance by A skylit drive


Gtr I - (e b g d a D

Intro-
|------------------------------------------------------|
|-----8p6--------------------8p6-----------------------|
|-7p5-----7/10------------7p5-----7/10-----------------|
|--------------8-7-5------------------8-7-5------------|5x
|------------------------------------------------------|
|------------------------------------------------------|


Verse-
|-------------------------13~---------------------------|
|------8~-----10~-----11~------8~------10~-----11~------|
|-7-5---------------------------------------------------|
|-------------------------------------------------------|
|-------------------------------------------------------|
|-------------------------------------------------------|

|-------------------------------------------------------|
|------6~---------6-8-6~-5-----6~----6~-------8~--------|
|----3~--------8~-----------3~--------------------------|
|-5~--------7~------------5~----------------------------|
|-------------------------------------------------------|
|-------------------------------------------------------|

Chorus-
Part1
|------------------------------------------------------------------|
|----6h8p8----------------------------6h8p8------------------------|
|-----------7p0-5p0-----------7--------------7p0-5p0--5-5-8-5-55-8-|
|-55-----------------5-5-8-5----55--5------------------------------|
|-55--------------------------------5------------------------------|
|-55--------------------------------5------------------------------|
                     * * * *    **                    * * * * ** * 

|--------------------------------|
|---------6h8p8------------------|
|---------------7p0-------10-----|
|-3--33-3------------5h8---------|
|-3--33-3------------------------|
|-3--33-3------------------------|

Repeat Part1

Part2
|---------------------------------------------------------------|
|---------------------------------------------------------------|
|---------------------------------------77---------------5h7p5~-|
|-5-5-5-5-5-5-5-5-5-5-5-5-5-5-33-1--7h8----7h8-1010--7h8--------|
|-5-5-5-5-5-5-5-5-5-5-5-5-5-5-33-1------------------------------|
|-5-5-5-5-5-5-5-5-5-5-5-5-5-5-33-1------------------------------|

|--------------------------------|
|--------------------------------|
|----77-55-----------------------|
|-7h8------7p0-8p0--5h7-8--------|
|--------------------------------|
|--------------------------------|

Repeat Part2

1:25                              1:31                           
|-------------------------------------------------------|
|-------------------------------------------------------|
|-------------------------------------------------------|
|-5--------------------------------1--------------------|
|-5--------------------------------1--------------------|
|-5--------------------------------1--------------------|

Bridge-
|-------------------------------------------------------|
|-------------------------------------------------------|
|-------------------------------------------------------|
|-5-------1------3--------------5-------1------3--------|
|-5-------1------3-(1)-s3-------5-------1------3--------|
|-5-------1------3--------------5-------1------3--------|

|-------------------------------------------------------|
|-------------------------------------------------------|
|-------------------------------------------------------|
|-5-------1------3--------------5-------1-1-----33------|
|-5-------1------3-(1)-s3-------5-------1-1-----33------|
|-5-------1------3--------------5-------1-1-----33------|

Chorus-

Outro-Use Delay
Do and  repeat 'til fade
|--------------------------------------------|
|------------6------6-8-(6)(8)-3-(3)---------|
|-----3--(3)---3----------------------5------|
|-5-5--(5)-----------------------------------|
|--------------------------------------------|
|--------------------------------------------|

|--------------------------------------------|
|------------6------6-8-(6)(8)-8/10~---------|
|-----3--(3)---3-----------------------------|
|-5-5--(5)-----------------------------------|
|--------------------------------------------|
|--------------------------------------------|


|--------------------------------------------|
|------------6------6-8-(6)(8)-3-(3)---------|
|-----3--(3)---3----------------------5------|
|-5-5--(5)-----------------------------------|
|--------------------------------------------|
|--------------------------------------------|


|--------------------------------------------|
|------------6~------------------------------|
|-----3--(3)---------------------------------|
|-5-5--(5)-----------------------------------|
|--------------------------------------------|
|--------------------------------------------|



Gtr II - (e b g d a D

Intro-0:07
|-18181818-18-17-------------18181818-18-17------------|
|----------------18-------------------------18---------|
|-------------------19-------------------------19------|
|------------------------------------------------------|3x
|------------------------------------------------------|
|------------------------------------------------------|


Verse-
|------------------------13~----------------------------|
|------8~-----10~-----11~------8~---11-10~-----11~------|
|-------------------------------------------------------|
|-------------------------------------------------------|
|-------------------------------------------------------|
|-------------------------------------------------------|


|------15~-----17~------18~-----15~---18-17~-----18~----|
|-------------------------------------------------------|
|-------------------------------------------------------|
|-------------------------------------------------------|
|-------------------------------------------------------|
|-------------------------------------------------------|

|-------------------------------------------------------|
|------6~---------6-8-6~-------6~----6~-------8~--------|
|----3~--------8~-----------3~--------------------------|
|-5~--------7~------------5~----------------------------|
|-------------------------------------------------------|
|-------------------------------------------------------|

Chorus-
Part1
|-------------------------------------------------------------------------|
|------------------------------11--------------------------------13-------|
|-----7h8p7------------------------------7h8p7--------------10------10----|
|-55--------8p0-10p0-1010-13-10--13-10-5-------8p0-10p0-1212---12-----12--|
|-55-----------------------------------5----------------------------------|
|-55-----------------------------------5----------------------------------|
                     * *  * *    *  *                   * *  * *  * * * 

|--------------------------------|
|--------------------------------|
|---------7h8p7------------------|
|-3--33-3--------8p0-10p0-5h7-8--|
|-3--33-3------------------------|
|-3--33-3------------------------|

Repeat Part1

Part2
|---------------------------------------------------------------|
|---------------------------------------------------------------|
|---------------------------------------------------------------|
|-5-5-5-5-5-5-5-5-5-5-5-5-5-5-33-1--5-7-8-8-7-5-8-8-7-5-7-8-7---|
|-5-5-5-5-5-5-5-5-5-5-5-5-5-5-33-1------------------------------|
|-5-5-5-5-5-5-5-5-5-5-5-5-5-5-33-1------------------------------|

|--------------------------------|
|--------------------------------|
|--------------------------------|
|-----1010-8-8-------------------|
|-8-8-----------7p0-8p0-5h7-8----|
|--------------------------------|

Repeat Part2

Organ part...
1:25                              1:31                           
|-------------------------------------------------------|
|-------------------------------------------------------|
|-------------------------------------------------------|
|-5--------------------------------1--------------------|
|-5--------------------------------1--------------------|
|-5--------------------------------1--------------------|

Bridge-
|-------------------------------------------------------|
|-------------------------------------------------------|
|-------------------------------------------------------|
|-5-------1------3--------------5-------1------3--------|
|-5-------1------3--------------5-------1------3--------|
|-5-------1------3--------------5-------1------3--------|

|-------------------------------------------------------|
|-------------------------------------------------------|
|-------------------------------------------------------|
|-5-------1------3--------------5-------1-1-----33------|
|-5-------1------3--------------5-------1-1-----33------|
|-5-------1------3--------------5-------1-1-----33------|

Chorus-

Outro-Use Delay
Do and  repeat 'til fade

|-18-18-17-(18)(17)---17----(17)-------------------|
|-------------------18---(18)----18-15---15--------|
|--------------------------------------17----15----|
|--------------------------------------------------|
|--------------------------------------------------|
|--------------------------------------------------|


|-18-18-17-(18)(17)---17----(17)-------------------|
|-------------------18---(18)----18-15-15-(15)-11--|
|--------------------------------------15-(15)-10--|
|--------------------------------------------------|
|--------------------------------------------------|
|--------------------------------------------------|


|-18-18-17-(18)(17)---17----(17)-------------------|
|-------------------18---(18)----18-15---15--------|
|--------------------------------------17----15----|
|--------------------------------------------------|
|--------------------------------------------------|
|--------------------------------------------------|


|-18-18-17~--~---------------------------|
|----------------------------------------|
|-------------------------15-------15----|
|--------------12-12-15p12---15p12-------|
|----------------------------------------|
|----------------------------------------|


Pls comment if you'll spot some wrong parts...i not really sure of how it's played esp GtrII





Comments


Popular A Skylit Drive tabs & chords
Wires And The Concept Of Breathing 2 Bass Tabs
A Reason For Broken Wings Chords
According To Columbus Chords
All Star Diaries Tabs
Hey Nightmare, Where Did You Get Them Teeth? Tabs
Hey Nightmare, Where Did You Get Them Teeth? 2 Tabs
Just Stay Tabs
Knights Of The Round 2 Tabs
See You Around Tabs
Wires And The Concept Of Breathing 1 Tabs


Song lyrics



↑ Back to top | Tablatures and chords are parodies/interpretations of the original songs. You may use it for private study, scholarship, research or language learning purposes only
© 2014 AZChords.com Contact us | Privacy policy | DMCA | Add/correct tabs | Request tabs | Top 50 tabs