>
 >
All-star Diaries

All-star Diaries Guitar Tabs

A Skylit Drive - All-star Diaries chords, tabs, tablatures, lyrics

Guitar lessons | Add/correct | Request | Top 50 tabs Artists:  A B C D E F G H I J K L M N O P Q R S T U V W X Y Z 0-9

All-star Diaries Guitar Tabs – A Skylit Drive

CD, Sheet music, Poster

Do you like All-star Diaries? Share with your friends now
Tabs
The All-Star Diaries 

I'm not very sure of this, specially the intro part, so, well, just tried...

Intro:
Guitar 1:
 Why you so.... 
 |------10-10-10-10------10-12-12-12------10-10-10-10------10-12-12-12--|
 |-8h10-------------8h10-------------8h10-------------8h10--------------|
 |----------------------------------------------------------------------|
 |----------------------------------------------------------------------|
 |----------------------------------------------------------------------|
 |----------------------------------------------------------------------|

Guitar 1:                         Guitar 2:
 Why you so scared?..
 |---10---8---12-10---12-10----| |-------------|
 |-8----8---8-------8-------8--| |-------------|
 |-----------------------------| |-------------|
 |-----------------------------| |---3~---3~---|
 |-----------------------------| |---3~---3~---|
 |-----------------------------| |---3~---3~---|

Guitar 1:
 |------8-8-8-10-10-10-12-10-8---10-10-----8-8-8-10-10-10-12-10-8---10--|
 |-8-8-8----------------------8-8-----8-8-8----------------------8-8----|
 |----------------------------------------------------------------------|
 |----------------------------------------------------------------------|
 |----------------------------------------------------------------------|

Guitar 1:                      Guitar 2:
 Why you so...
 |---10---8---8-12~---10---|  |-------------|
 |-8----8---8-------8------|  |-------------|
 |-------------------------|  |-------------|
 |-------------------------|  |---3~--3~----|
 |-------------------------|  |---3~--3~----|
 |-------------------------|  |---3~--3~----|

Guitar 1:
 I am a non-worthy...
 |-------------------------------------|
 |-------------------------------------|
 |-------------------------------------|
 |--7~--5~/10~-9-10-10-9~--9-10-10-9~--|
 |-------------------------------------|
 |-------------------------------------|

Guitar 1:
 When will you be...
 |-------------------------------------------|
 |---------1h3-1-0---------1h3-1-0-0~--------|
 |-----0h2-------------0h2------------1~-----|
 |-0h2-------------0h2------------------2~---|
 |-------------------------------------------|
 |-------------------------------------------|

Verse:
Guitar 2:
 Sing a song for me...
 |---------------------------------|
 |---------------------------------|
 |---------------------------------|
 |-7-77777777-777-3-33333333-333---| x4
 |-7-77777777-777-3-33333333-333---|
 |-7-77777777-777-3-33333333-333---|
     . . . .  . .   . . . .  . .
Guitar 1:
Sing a song for me...
 |---------------------------------| 
 |---------------------------------|
 |---------------------------------|
 |-9-99999999-999-5-5555555-5555---|
 |-7-77777777-777-3-3333333-3333---|
 |---------------------------------|
     . . . .  . .   . . . . . .  
At (00:54)
 |---------------9-------------------|
 |----------------8x-----------------|
 |-----------------------------------|
 |-9-99999999-999---5-5555555-5555---|
 |-7-77777777-777---3-3333333-3333---|
 |-----------------------------------|
     . . . .  . .     . . . . . . 
 Scramblin' to shut...
 |-------------------------------------|
 |-------------------------------------|
 |--------------------------6----------|
 |-9-99999999-999-5-5555555--5--5555---|
 |-7-77777777-777-3-3333333---7-3333---|
 |-------------------------------------|
     . . . .  . .   . . . .     . . 
 Scramblin' to shut...
 |--------------------------------|
 |--------------------------------|
 |--------------------------------|
 |-9-99999999-999-5-5555555-5555--|
 |-7-77777777-777-3-3333333-3333--|
 |--------------------------------|
     . . . .  . .   . . . . . . 

Guitar 1:
 Wanting more...
 |-----8-10-12~-10~----8-12~-10~----------8-10-12~-10~----8-12~10~---------|
 |-8h10------------8h10---------8/12~-8h10------------8h10--------8/12~\8--|
 |-------------------------------------------------------------------------|
 |-------------------------------------------------------------------------|
 |-------------------------------------------------------------------------|
 |-------------------------------------------------------------------------|

Verse:
Guitar 2:
Have a seat in mt car...
 |---------------------------------|
 |---------------------------------|
 |---------------------------------|
 |-7-77777777-777-3-33333333-333---| x4
 |-7-77777777-777-3-33333333-333---|
 |-7-77777777-777-3-33333333-333---|
     . . . .  . .   . . . .  . .
Guitar 1:                              
 Have a seat in my car...                 
 |-12~-10~-8~-12~-10~-7~-12~-10~----| 
 |------------------------------8~--| 
 |----------------------------------| 
 |----------------------------------| 
 |----------------------------------| 
 |----------------------------------| 

 Im not leavin' why are you so scared...
 |------------------------------------------------9-----------------------|
 |-------------------------------------------------8x---------------------|
 |--------------------------6---------------------------------------------|
 |-9-99999999-999-5-55555555-5--555-9-99999999-999---5-55555555-5555------| 
 |-7-77777777-777-3-33333333--7-333-7-77777777-777---3-33333333-3333------|
 |------------------------------------------------------------------------|
     . . . .  . .   . . . .     . .   . . . .  . .     . . . .  . .    

Guitar 1:
 Why you so.... 
 |------10-10-10-10------10-12-12-12------10-10-10-10------10-12-12-12--|
 |-8h10-------------8h10-------------8h10-------------8h10--------------|
 |----------------------------------------------------------------------|
 |----------------------------------------------------------------------|
 |----------------------------------------------------------------------|
 |----------------------------------------------------------------------|

Guitar 1:                         Guitar 2:
 Why you so scared?..
 |---10---8---12-10---12-10----| |-------------|
 |-8----8---8-------8-------8--| |-------------|
 |-----------------------------| |-------------|
 |-----------------------------| |---3~---3~---|
 |-----------------------------| |---3~---3~---|
 |-----------------------------| |---3~---3~---|

Guitar 1:
 |------8-8-8-10-10-10-12-10-8---10-10-----8-8-8-10-10-10-12-10-8---10--|
 |-8-8-8----------------------8-8-----8-8-8----------------------8-8----|
 |----------------------------------------------------------------------|
 |----------------------------------------------------------------------|
 |----------------------------------------------------------------------|

Guitar 1:                      Guitar 2:
 Why you so...
 |---10---8---8-12~---10---|  |-------------|
 |-8----8---8-------8------|  |-------------|
 |-------------------------|  |-------------|
 |-------------------------|  |---3~--3~----|
 |-------------------------|  |---3~--3~----|
 |-------------------------|  |---3~--3~----|

Guitar 1:
 I am a non-worthy...
 |-------------------------------------|
 |-------------------------------------|
 |-------------------------------------|
 |--7~--5~/10~-9-10-10-9~--9-10-10-9~--|
 |-------------------------------------|
 |-------------------------------------|

Guitar 1:
 When will you be...
 |-------------------------------------------|
 |---------1h3-1-0---------1h3-1-0-0~--------|
 |-----0h2-------------0h2------------1~-----|
 |-0h2-------------0h2------------------2~---|
 |-------------------------------------------|
 |-------------------------------------------|

Verse:
Guitar 2:
 With your eyes on me...
 |---------------------------------|
 |---------------------------------|
 |---------------------------------|
 |-7-77777777-777-3-33333333-333---| x4
 |-7-77777777-777-3-33333333-333---|
 |-7-77777777-777-3-33333333-333---|
     . . . .  . .   . . . .  . .
Guitar 1:                              
 with your eyes on me...                
 |-12~-10~-8~-12~-10~-7~-12~-10~----| 
 |------------------------------8~--| 
 |----------------------------------| 
 |----------------------------------| 
 |----------------------------------| 
 |----------------------------------| 

 Secret passage to the weight of the world...
 |------------------------------------------------9-----------------------|
 |-------------------------------------------------8x---------------------|
 |--------------------------6---------------------------------------------|
 |-9-99999999-999-5-55555555-5--555-9-99999999-999---5-55555555-5555------| 
 |-7-77777777-777-3-33333333--7-333-7-77777777-777---3-33333333-3333------|
 |------------------------------------------------------------------------|
     . . . .  . .   . . . .     . .   . . . .  . .     . . . .  . .    

Guitar 1:
 Why you so.... 
 |------10-10-10-10------10-12-12-12------10-10-10-10------10-12-12-12--|
 |-8h10-------------8h10-------------8h10-------------8h10--------------|
 |----------------------------------------------------------------------|
 |----------------------------------------------------------------------|
 |----------------------------------------------------------------------|
 |----------------------------------------------------------------------|

Guitar 1:                         Guitar 2:
 Why you so scared?..
 |---10---8---12-10---12-10----| |-------------|
 |-8----8---8-------8-------8--| |-------------|
 |-----------------------------| |-------------|
 |-----------------------------| |---3~---3~---|
 |-----------------------------| |---3~---3~---|
 |-----------------------------| |---3~---3~---|

Guitar 1:
 |------8-8-8-10-10-10-12-10-8---10-10-----8-8-8-10-10-10-12-10-8---10--|
 |-8-8-8----------------------8-8-----8-8-8----------------------8-8----|
 |----------------------------------------------------------------------|
 |----------------------------------------------------------------------|
 |----------------------------------------------------------------------|

Guitar 1:                      Guitar 2:
 Why you so...
 |---10---8---8-12~---10---|  |-------------|
 |-8----8---8-------8------|  |-------------|
 |-------------------------|  |-------------|
 |-------------------------|  |---3~--3~----|
 |-------------------------|  |---3~--3~----|
 |-------------------------|  |---3~--3~----|

Bridge:
Guitar 2:                  Guitar 1:
 hands at my side....        immediately after guitar 2...
 |-------------|              |--8-----8-------|
 |-------------|              |----6-----6-----|
 |-------------|              |------9-----9---|
 |--777--10/---| x2           |----------------| x2
 |--777--10/---|              |----------------|
 |--777--10/---|              |----------------|

Guitar 2:                   guitar 1:
 This is my life...         
 |---------------------|      |-----------------------|
 |---------------------|      |-----------------------|
 |---------------------|      |-2-2-2--5/-------------|
 |--7777--10/--333333--| x2   |-----------3-3-3-------|
 |--7777--10/--333333--|      |-----------------------|
 |--7777--10/--333333--|      |-----------------------|

Outro:
Guitar 1:
 |------10-10-10-10------10-12-12-12--|
 |-8h10-------------8h10--------------|
 |------------------------------------|
 |------------------------------------| x2
 |------------------------------------|
 |------------------------------------|

Maybe it's correct, maybe not... dunno...
Hahahah...





Comments


Popular A Skylit Drive tabs & chords
All Star Diaries Bass Tabs
Ex Machina Bass Tabs
My Disease Bass Tabs
A Reason For Broken Wings 1 Tabs
According To Columbus Tabs
According To Columbus 2 Tabs
Prelude To A Dream Tabs
See You Around Tabs
Wires And The Concept Of Breathing Tabs
According To Columbus Ukulele


Song lyrics



↑ Back to top | Tablatures and chords are parodies/interpretations of the original songs. You may use it for private study, scholarship, research or language learning purposes only
© 2014 AZChords.com Contact us | Privacy policy | DMCA | Add/correct tabs | Request tabs | Top 50 tabs