» » »

Comfort Betrays Tabs (ver.2)

Artists:  A B C D E F G H I J K L M N O P Q R S T U V W X Y Z # 

Comfort Betrays Tabs (ver.2)

As I Lay Dying
Rating:
0/5 (0 votes)

Hard to play? Try these video lessons and learn fast.
                So I've decided to tab this song because no one has yet.
its really fun to play.
I haven't figured out the solo yet but
if you have and would like to
Full credit will go to for helping.

\m/Legend\m/

p = pulloff
\ = slide down
/ = slide up
~ = vibrato
pm = palm mute
^ = bend




Guitar 1 - 0:10
||-----------------------------------------------|-
||-----------------------------------------------|-
||-----------------------------------------------|-
||------------------------------------10\7/10\9--|-
||-----10p7p0-9p6p0------10p7p0-9p6p0--8\5/-8\7--|-
||-0-0---------------0-0-------------------------|-

||--------------------------------------------|-
||--------------------------------------------|-
||--------------------------------------------|-
||------------------------------------10-9-8--|-
||-----10p7p0-9p6p0------10p7p0-9p6p0--8-7-6--|-
||-0-0---------------0-0----------------------|-


Both guitars - 0:43
||-----------------------------------------------|-
||-----------------------------------------------|-
||-----------------------------------------------|-
||------------------------------------10\7/10\9--|-
||-----10p7p0-9p6p0------10p7p0-9p6p0--8\5/-8\7--|-
||-0-0---------------0-0-------------------------|-

||--------------------------------------------|-
||--------------------------------------------|-
||--------------------------------------------|-
||------------------------------------10-9-8--|-
||-----10p7p0-9p6p0------10p7p0-9p6p0--8-7-6--|-
||-0-0---------------0-0----------------------|-


Both guitars - 0:44
||-------------------------------------------------|-
||-------------------------------------------------|-
||-------------------------------------------------|-
||-------------------------------------------------|-
||-0-0-0-00-000-000-0-0-00-0-00-0-0-0-000-000------|-
||-0-0-0-00-000-000-0-0-00-0-00-0-0-0-000-000------|-
          (! LISTEN TO SONG FOR TIMING !)


Guitar 1 - 01:05               ( 01:14 )
||---------------------------------12~-------------|-
||--------~6-----------------------11~-------------|-
||------9~---9~-7~----10~-9~-9~~~~-9~--------------|-
||----------------12~------------------------------|-
||-------------------------------------------------|-
||-------------------------------------------------|-


Guitar 2 along with Guitar 1
||-------------------------------------------------|-
||-------------------------------------------------|-
||-------------------------------------------------|-
||-------------------------------------------------|-
||-0-0-0-00-000-000-0-0-00-0-00-0-0-0-000-000------|-
||-0-0-0-00-000-000-0-0-00-0-00-0-0-0-000-000------|-


Both guitars - 01:18
||-----------------------------------------------------|-
||-----------------------------------------------------|-
||-----------------------------------------------------|-
||-12\9/10--10\7/9-7/9-------------------777-----------|-
||-10\7/-8---8\5/7-5/7---555-777-888-555-----555-------|-
||---------0-------------------------------------------|-
                       pm***********************pm


Guitar 1 - 01:28
||-----------------------------------------------------|-
||-----------------------------------------------------|-
||-----------------------------------------------------|-
||-12\9/10--10\7/9-7/9---------------------------------|-
||-10\7/-8---8\5/7-5/7---12ps\0------------------------|-
||---------0-------------12ps\0------------------------|-


Guitar 2 - 01:28
||------------------------------------------------|-
||------------------------------------------------|-
||------------------------------------------------|-
||-12\9/10--10\7/9-7/9---------------77-----------|-
||-10\7/-8---8\5/7-5/7---55-77-88-55----55--------|-
||---------0--------------------------------------|-
                       pm*****************pm



Both guitars - 01:30
||------------------------------------------------|-
||------------------------------------------------|-
||------------------------------------------------|-
||-12\9/10--10\7/9-7/9---------------77-----------|-
||-10\7/-8---8\5/7-5/7---55-77-88-55----55--------|-
||---------0--------------------------------------|-
                       pm*****************pm





T H I S  I S  W H E R E  T H E  S O L O  S H O U L D  B E.





Both guitars - 02:01
||----------------------------------------------|-
||----------------------------------------------|-
||----------------------------------------------|-
||----------12\9-----10\9---10\7/10\9-----------|-
||----------10\7------8\8----9\5/-8\7-----------|-
||-0000000-------0000-----00--------------------|-



Guitar 1 - 02:11              (  02:23 )
||----------------|-------------------------------------------|-
||-----6~~~-------|------6~~------/12^bend half step and hold-|-
||-9~~~-----9~~~--|-9~~~--------------------------------------|-
||----------------|-------------------------------------------|-
||----------------|-------------------------------------------|-
||----------------|-------------------------------------------|-


Both guitars - 02:23
||--------------------------------------------------------|-
||--------------------------------------------------------|-
||--------------------------------------------------------|-
||--------------------------------------------------------|-
||--------------------------------------------------------|-
||-000---000---0000--00--000---000---0000-----------------|-



Both guitars - 02:34 to end.
||-------------------------------------------------|-
||-------------------------------------------------|-
||-------------------------------------------------|-
||-------------------------------------------------|-
||-0-0-0-00-000-000-0-0-00-0-00-0-0-0-000-000------|-
||-0-0-0-00-000-000-0-0-00-0-00-0-0-0-000-000------|-

ENJOY.
            
Hard to play? Try these video lessons and learn fast. | Correct




comments powered by Disqus
↑ Back to top | Tablatures and chords are parodies/interpretations of the original songs. You may use it for private study, scholarship, research or language learning purposes only