>
 >
Comfort Betrays 1

Comfort Betrays 1 Guitar Tabs

As I Lay Dying - Comfort Betrays 1 chords, tabs, tablatures, lyrics

Guitar lessons | Add/correct | Request | Top 50 tabs Artists:  A B C D E F G H I J K L M N O P Q R S T U V W X Y Z 0-9

Comfort Betrays 1 Guitar Tabs – As I Lay Dying

CD, Sheet music, Poster

Do you like Comfort Betrays 1? Share with your friends now
TabsTabs v2Tabs v3Tabs v4
Legend

\&/= slide
* = palm mute
p&h = pull-off &hammer-on
T = tap
v = vibrato
b = bend
r = release


[S,E,Q,H,W] = eghth, quarter, half, whole notes
lowercase letters are rests
+ = double


Tuning is Drop-C#: C# G# C# F# A# D#   Tempo is about 170bpm


A both guitars
    SSSSS S SSS SSSSSSS S SSSS SSSSS E E E E
|--------------------------------------------|
|--------------------------------------------|
|--------------------------------------------|
|------------------------------------9\6/9\8-|
|-------9p6---8p5-------9p6--8p5-----7\4/7\6-|
|---0000----00---000000----00---0000---------|
    ****    **   ******    **   ****


   SS S SSSS SSSSSSS S SSSS SSSSS E E E e
|----------------------------------------|
|----------------------------------------|
|----------------------------------------|
|--------------------------------11-8-5--|
|-----9p6--8p5-------9p5--8p5-----9-6-3--|
|--00----00---000000----00---0000--------|
   **    **   ******    **   ****


B both guitars
  SSSSSSE E SSSSE ESSSSSS E E E E
|---------------------------------|
|---------------------------------|
|---------------------------------|
|-------------------------9\6/9\8-|
|-------9p6-----8p5-------7\4/7\6-|
|-000000----0000---000000---------|
  ******    ****   ******


  SSSSE E SSSSE ESSSSSS E E E E
|-------------------------------|
|-------------------------------|
|-------------------------------|
|----------------------11-8-5-7-|
|-----9p6-----8p5-------9-6-3-5-|
|-0000----0000---000000---------|
  ****    ****   ******
then repeat A twice


C both guitars
  SSSsSsSSSsSSSsSSSsSsSSSsSSSsSSSs
|---------------------------------|
|---------------------------------|
|---------------------------------|
|---------------------------------|
|---------------------------------|
|-000-0-000-000-000-0-000-000-000-|
  *** * *** *** *** * *** *** ***


  SSSsSsSSSsSSSsSSSsSsSSSsSSSsSSSS x11   W   H  H   H  H   Q  H.  W+   W+
|----------------------------------||---------------------------------11-|
|o--------------------------------o||----------------------------11---10-|
|----------------------------------||----6v--7v-6v-----6v--7v-----8----8-|
|o--------------------------------o||--------------10v--------9v---------|
|----------------------------------||------------------------------------|
|-000-0-000-000-000-0-000-000-0000-||------------------------------------|
  *** * *** *** *** * *** *** ****


D gtr1
  SsSSS E E E  SsSSS E E E SsSSS E E SSS  E E E SsSSS
|-----------------------------------------------------|
|-----------------------------------------------------|
|-----------------------------------------------------|
|-----------------------------------------------------|
|-------9-7-6-------7-4-6--------4-6------9-7-6-------|
|-0-000--------0-000-------0-000-----000--------0-000-|
  * ***        * ***       * ***     ***        * ***


gtr1                 both guitars
  SSSSSSSSSSSSSSSS    E E  E  E E E  E E  E E E E E E E E E E  E E
|-----------------| |--------------------------------------------|
|-----------------| |--------------------------------------------|
|-----------------| |--------------------------------------------|
|---------4422----| |--------------------------------------------|
|-66224466----4466| |------9-7-6-------7-4-6-------4-6------9-7-6|
|-----------------| |-0-0--------0-0-0-------0-0-0-----0-0-------|
  ****************    * *        * * *       * * *     * *
                      ^this is after the second repeat


gtr1
  SS E E E SS E E E
|------------------|
|------------------|
|------------------|
|----------44-2----|
|-66-2-4-6------4-6|
|------------------|
  ** * * * ** * * *
 ^gtr2 does pickscrape for the 1st time, on the 2nd play this


Solo (Please send me corrections for anything thats wrong)


gtr1
  S S S S S S S S S S S S S S S S S S S S S S S S  S S S S S S S S
|-5-0-1-3-7-0-1-3-5-0-1-3-7-0-1-3-|5-0-1-3-7-0-1-3-9-0-1-3-7-0-1-3--|
|---------------------------------|---------------------------------|
|---------------------------------|---------------------------------|
|---------------------------------|---------------------------------|
|---------------------------------|---------------------------------|
|---------------------------------|---------------------------------|
| T T T T T T T T T T T T T T T T T T T T T T T T  T T T T T T T T
|
|gtr2
| S S S S S S S S S S S S S S S S  S S S S S S S S  E E E E
|---------------------------------|-------------------------|
|---------------------------------|-------------------------|
|---------------------------------|-------------------------|
|---------------------------------|-----------------9\6/9\8-|
|---------------------------------|-----------------7\4/7\6-|
|-0-0-0-0-0-0-0-0-0-0-0-0-0-0-0-0-|0-0-0-0-0-0-0-0----------|
  * * * * * * * * * * * * * * * *  * * * * * * * *

  S S S S S S S S  S S S S  S S S S  S S S S  S S S S  S S S S S S S S  H
|11-0-1-3-9-0-1-3-13-0-1-3-11-0-1-3|-15-0-1-3-13-0-1-3-17-0-1-3-9-0-1-3-21--|v
|----------------------------------|----------------------------------------|
|----------------------------------|----------------------------------------|
|----------------------------------|----------------------------------------|
|----------------------------------|----------------------------------------|
|----------------------------------|----------------------------------------|
| T T T T T T T T  T  T T T T T T T   T T T T  T T T T  T  T T T T T T T T
|
| S S S S S S S S S S S S S S S S  S S S S S S S S  E E E E
|---------------------------------|-------------------------|
|---------------------------------|-------------------------|
|---------------------------------|-------------------------|
|---------------------------------|----------------12-9-6-8-|
|---------------------------------|----------------10-7-4-6-|
|-0-0-0-0-0-0-0-0-0-0-0-0-0-0-0-0-|0-0-0-0-0-0-0-0----------|
  * * * * * * * * * * * * * * * *  * * * * * * * *

gtr1 (this part sounds wrong so help me out here)
   S  S  S  S  S  S  S  S  S S  S  S  S  S  S  S  S  S  S  S  S  S S  H
|-11-14-11----11-----------------------------------------------------------|
|----------14----14-11-12----11--------------------------------------------|
|-------------------------13----11-13-10-11----10---------------------10bv-|
|-------------------------------------------13----11-13-10-11-8-10-11------|
|--------------------------------------------------------------------------|
|--------------------------------------------------------------------------|

gtr1
    S S   S  S S  S  S  S  S  S  S  S  S  S  S  S  Q  Q  E  E  E  E
|-/11----11-12-14-11-11----11-12-14-11-11----11-12-16-14-12-11-8----|
|-----14----------------14----------------14---------------------11-|
|-------------------------------------------------------------------|
|-------------------------------------------------------------------|
|-------------------------------------------------------------------|
|-------------------------------------------------------------------|


gtr1
  H    E Q E Q  E Q  E E E E  W  E E E Q   Q
|--------------------------------------------|
|-10br-8-------------------------------------|
|--------8-----------------------8-7-8/12-11-|
|----------8-10-6-8--------------------------|
|-------------------10---8-10-6v-------------|
|--------------------------------------------|
gtr2 repeats B twice


gtr1
  W    E E  E   Q  Q  W
|--------------------18\-|
|-10v-11-10-11/15-14-17\-|
|------------------------|
|------------------------|
|------------------------|


F Both guitars
  S S S S E  ES S E  ES S E E  E  E
|----------------------------------|
|----------------------------------|
|----------------------------------|
|---------11\8----10\7----9\6/9\8--|
|----------9\6-----8\5----7\4/7\6--|
|-00000000----0000----0000---------|
  ********    ****    ****

  H.   Q   W    H.  Q   H  Q   H    W
|--------------------------------------|
|--------------------------------------|
|-7v---8v--7v---7v--8v--8/13v-13br-13v-|
|--------------------------------------|
|--------------------------------------|
|--------------------------------------|

gtr1
  SSSeSSSeSSSSSSSSSSSessseSSSSSSSSSSSsSSSsSSSsSSSSSSSSSSSee
|-----------------------------------------------------------------|
|-----------------------------------------------------------------|
|-----------------------------------------------------------------|
|-----------------------------------------------------------------|
|-----------------------------------------------------------------|
|-000-000-00000000000-----00000000000-000-000-00000000000---------|
| *** *** ***********     *********** *** *** ***********
|gtr2
| SSSessseSSSSSSSSSSSeSSSeSSSSSSSSSSSesssessseSSSSSSSSSSSeSSSsSSS
|-----------------------------------------------------------------|
|-----------------------------------------------------------------|
|-----------------------------------------------------------------|
|-----------------------------------------------------------------|
|-----------------------------------------------------------------|
|-000-----00000000000-000-00000000000---------00000000000-000-000-|
  ***     *********** *** ***********         *********** *** ***

|----------|
|----------|
|----------|
|----------|
|----------|
|-00000000-|repeat C here
  ********

I hope this was very useful to you. It took some time to tab so please give me 
to mistakes, if it checks out I'll update the tab.

Actually I only have one guitar and it's a floyd rose so i can't really test out any corrections.





Comments


Popular As I Lay Dying tabs & chords
Blood Turned To Tears Bass Tabs
Elegy Bass Tabs
Forced To Die Bass Tabs
Truth Of My Perception Bass Tabs
Undefined Bass Tabs
94 Hours 3 Tabs
Nothing Left 1 Tabs
Resilience Tabs
Surounded Intro Tabs
Through Struggle 1 Tabs


Song lyrics



↑ Back to top | Tablatures and chords are parodies/interpretations of the original songs. You may use it for private study, scholarship, research or language learning purposes only
© 2014 AZChords.com Contact us | Privacy policy | DMCA | Add/correct tabs | Request tabs | Top 50 tabs