» » »

Asian Kung-Fu Generation, Ngs Tabs (ver.1)

Artists:  A B C D E F G H I J K L M N O P Q R S T U V W X Y Z # 
Rating:
0/5 (0 votes)
Ngs lessons Tabs too difficult? Try these video lessons and learn fast
                (Intro)
Cool intro from Asian Kungfu Generation wich is realy easy to play. Im not really shure 
the Guitar 2 part.

My version of the full song: 

Guitar 1:
E|-15-17-15------------------------------|
B|----------17-15--15-17-15--------------|
G|--------------------------17-14--14-17-|
D|-------------------------------17------|
A|---------------------------------------|
E|---------------------------------------|

Guitar 2: Powerchords: DDD-GGG-AAA-CCC

E|-----------------|
B|-----------------|
G|-777---------555-|
D|-777-555-777-555-|
A|-555-555-777-333-|
E|-----333-555-----|
            
Submit corrections

comments powered by Disqus
↑ Back to top | Asian Kung-Fu Generation Tabs for Ngs. Lyrics for acoustic guitar and electric guitar. Tablatures and chords are parodies/interpretations of the original songs. You may use it for private study, scholarship, research or language learning purposes only