» » »

Asian Kung-Fu Generation, Ngs Tabs (ver.2)

Artists:  A B C D E F G H I J K L M N O P Q R S T U V W X Y Z # 
Rating:
0/5 (0 votes)
Ngs lessons Tabs too difficult? Try these video lessons and learn fast
                This song is awesome! I made an intro TAB.
But with the wisdom i gained from "The Ultimate Guide for Guitar II"  from the columns i 
to figure out the whole song!
I messed up with naming the Parts of the song but who cares about that.

* at the and of a note means that you should mute the note after playing it.

I will refer to this video in the TAB:

Here it Goes!

--------------------------------INTRO--------------------------------

(0:04 to 0:22) Guitar 1:
E|-15-17-15------------------------------|
B|----------17-15--15-17-15--------------|
G|--------------------------17-14--14-17-|
D|-------------------------------17------|  Play this 6 times
A|---------------------------------------|
E|---------------------------------------|

(0:04 to 0:22) Guitar 2:

E|-------------------|
B|-------------------|
G|-777------------3--|
D|-777-555-777-55-3--| Play this 6 times
A|-555-555-777-55-5--|
E|-----333-555-33----|

----------------------------------VERSE------------------------------------

Bass (0:23 to 0:34)

----------------------------------CHORUS--------------------------------

(0:35 to 0:46) Guitar 1:
E|-15-17-15------------------------------|
B|----------17-15--15-17-15--------------|
G|--------------------------17-14--14-17-|
D|-------------------------------17------|  Play this 4 times
A|---------------------------------------|
E|---------------------------------------|

(0:35 to 0:46) Guitar 2:

E|-------------------|
B|-------------------|
G|-777------------3--|
D|-777-555-777-55-3--| Play this 4 times
A|-555-555-777-55-5--|
E|-----333-555-33----|

---------------------------------VERSE--------------------------------------

Bass (0:47 to 0:57)

(0:58 to 1:19) Guitar 2:

E|-----------------------|
B|-----------------------|
G|-7777--------------33--|
D|-7777-5555-7777-55-33--| Play this alot of times
A|-5555-5555-7777-55-55--|
E|------3333-5555-33-----|

(1:10 to 1:19) Guitar 1:

E|---------------------|
B|---6^---9^-----------|
G|------------6^---8^--|
D|---------------------| Play 3 times
A|---------------------|
E|---------------------|

(1:20 to 1:23) Guitar 1:

E|-15-----------------------------------|
B|----17-15----15-----15----------------|
G|----------17-----17-----14*--17*--14*-|
D|--------------------------------------|  Play this 1 time
A|--------------------------------------|
E|--------------------------------------|

----------------------------------CHORUS-------------------------------------

(1:24 to 1:34) Guitar 1:
E|-15-17-15------------------------------|
B|----------17-15--15-17-15--------------|
G|--------------------------17-14--14-17-|
D|-------------------------------17------|  Play this 4 times
A|---------------------------------------|
E|---------------------------------------|

(1:24 to 1:342) Guitar 2:

E|-------------------|
B|-------------------|
G|-777------------3--|
D|-777-555-777-55-3--| Play this 4 times
A|-555-555-777-55-5--|
E|-----333-555-33----|


-------------------------------------SOLO!!!!!------------------------------

E|------------------|----------------------------|
B|------------------|----------------------------|
G|----5-----5--7b7r-|--5-------5-5----5-5---5----|
D|--7----7----------|----7-5-7------7-----7---7--|
A|------------------|----------------------------|
E|------------------|----------------------------|

|--------------------------------------|
|----------10^10--15^-15^r-------------|
|-7--7^7r------------------17--14--17--|
|--------------------------------------|
|--------------------------------------|
|--------------------------------------|

------------------------SOMETHING THAT I CANT NAME---------------------------


(1:46 to 1:51)Guitar 1:                    Not shure of this Part!
E|--15*-17*----------15*-17*----------|----------------------------------|
B|----------15*-17*----------15*-17*--|----------------------------------|
G|------------------------------------|----------------------------------|
D|------------------------------------|----------------------------------|
A|------------------------------------|----------------------------------|
E|------------------------------------|-15x4-17x4-10x4-12x4-15x4-17x4-10-|
                                     PM   .    .    .    .

-------------------------------------VERSE-----------------------------------

(1:57 to 2:20) Guitar 2:

E|-----------------------|
B|-----------------------|
G|-7777--------------33--|
D|-7777-5555-7777-55-33--| Play this alot of times
A|-5555-5555-7777-55-55--|
E|------3333-5555-33-----|

(2:10 to 2:20) Guitar 1:

E|---------------------|
B|---6^---9^-----------|
G|------------6^---8^--|
D|---------------------| Play 3 times
A|---------------------|
E|---------------------|

---------------------------------------CHORUS-------------------------------

(2:21 to 2:33) Guitar 1:
E|-15-17-15------------------------------|
B|----------17-15--15-17-15--------------|
G|--------------------------17-14--14-17-|
D|-------------------------------17------|  Play this 4 times
A|---------------------------------------|
E|---------------------------------------|

(2:21 to 2:33) Guitar 2:

E|-------------------|
B|-------------------|
G|-777------------3--|
D|-777-555-777-55-3--| Play this 4 times
A|-555-555-777-55-5--|
E|-----333-555-33----|

----------------------------------OUTRO--------------------------------------

(2:33 to 2:42) Guitar 1:

     Play this part 2x          Then this 1x
E|-15-17-15----15^(light bend)-|-15-17-15----|-15-17-15----15^-17-17^r-17^r--|
B|----------17-----------------|----------17-|----------17-------------------|
G|-----------------------------|-------------|-------------------------------|
D|-----------------------------|-------------|-------------------------------|
A|-----------------------------|-------------|-------------------------------|
E|-----------------------------|-------------|-------------------------------|

|-17^r-15----|-15-17-15------------------------------|
|---------17-|----------17-15--15-17-15--------------|
|------------|--------------------------17-14--14-17-|
|------------|-------------------------------17------|
|------------|---------------------------------------|
|------------|---------------------------------------|

(2:33 to 2:42) Guitar 2:

E|-------------------|
B|-------------------|
G|-777------------3--|
D|-777-555-777-55-3--|
A|-555-555-777-55-5--|
E|-----333-555-33----|


(2:42) Guitar 1:

|-15-----------------------------------|
|----17-15----15-----15----------------|
|----------17-----17-----14*--17*--14*-|
|--------------------------------------|
|--------------------------------------|
|--------------------------------------|
            

comments powered by Disqus
↑ Back to top | Asian Kung-Fu Generation Tabs for Ngs. Lyrics for acoustic guitar and electric guitar. Tablatures and chords are parodies/interpretations of the original songs. You may use it for private study, scholarship, research or language learning purposes only