>
 >
The 42nd Ego

The 42nd Ego Guitar Tabs

Arsonists Get All The Girls - The 42nd Ego chords, tabs, tablatures, lyrics

Guitar lessons | Add/correct | Request | Top 50 tabs Artists:  A B C D E F G H I J K L M N O P Q R S T U V W X Y Z 0-9

The 42nd Ego Guitar Tabs – Arsonists Get All The Girls

CD, Sheet music, Poster

Do you like The 42nd Ego? Share with your friends now
TabsTabs v2
[The 42nd Ego]
[Portals]
[Arsonists Get All The Girls]

Tuning: Drop C (CGCFAD)

There will be a guitar pro for further explaination if its accepted.
Check symbols at the bottum, they might help you out.
Look at the times so you're playing the right part.

[Riff 1, Gtr 1 & 2] - [00:00] - [00:06]----| 2x
- -----------------------------------------|
- -----------------------------------------|
- -----------------------------------------|
- -----------------------------------------|
- -----------------------------------------|
- -----------------------------------------|
-
- ---------------------------------|
- ---------------------------------|
- ---------------------------------|
- ---------------------------------|
- ---------------------------------|
- -2br-2br-2-2-2br-2br-2-2-2br-2-2-|

[Riff 2, Gtr 1 & 2] - [00:06] - [00:18]----| 4x
- -----------------------------------------|
- -----------------------------------------|
- -----------------------------------------|
- -----------------------------------------|
- -332-332-2-2-332-332-2-2-332-2-2---------|
- -332-332-2-2-332-332-2-2-332-2-2---------|
PM ...............................

[Riff 3, Gtr 1 & 2] - [00:18] - [00:22]----| 1x
- -----------------------------------------|
- -----------------------------------------|
- -----------------------------------------|
- -----------------------------------------|
- -----------------------------------------|
- -0---0----0---0----0---0----0--[3b]------|
-
- ------------------------------------|
- ------------------------------------|
- ------------------------------------|
- -0---0----0---0----0---0----0---0---|
- -0-0-0-00-0-0-0-00-0-0-0-00-0-0-0-0-|
- -0-0-0-00-0-0-0-00-0-0-0-00-0-0-0-0-|
PM   .   ..   .   ..   .   ..   .   .

[Riff 2, Gtr 1 & 2] - [00:22] - [00:28] - 2x

[Riff 4, Gtr 1 & 2] - [00:28] - [00:32]----| 1x
- -----------------------------------------|
- -----------------------------------------|
- --------------------------------3~-------|
- --------------------------------2~-------|
- --------------------------------1~-------|
- -0---0----0---0----0---0----0---2~-------|
-
- ------------------------------------|
- ------------------------------------|
- --------------------------------3~--|
- -0---0----0---0----0---0----0---2~--|
- -0-0-0-00-0-0-0-00-0-0-0-00-0-0-1~--|
- -0-0-0-00-0-0-0-00-0-0-0-00-0-0-2~--|
PM   .   ..   .   ..   .   ..   .

[Riff 5, Gtr 1 & 2] - [00:32] - [00:56]-----| 4x
- ------------------------------------------|
- ------------------------------------------|
- -------777-------777-------777-------333--|
- -32323-666-32323-666-32323-666-43232-222--|
- -21212-555-32322-555-32322-555-32121-111--|
- -32323-666-32323-666-32323-666-43232-222--|
PM .....     .....     .....     .....

[Riff 6, Gtr 1 & 2] - [00:56] - [01:07]-----------------| 2x
- ------------------------------------------------------|
- ------------------------------------------------------|
- ---------------------------------------------5-4------|
- -----2-3-2-----------------------2-3-2-----------6-3--|
- -0-3-------3-0-3-------------0-3-------3-0-3----------|
- -----------------6---3-6--3---------------------------|
AP ...................................................
PM ...............             ...............

[Riff 7, Gtr 1 & 2] - [01:07] - [01:17]--------------------------------| 2x
- ---------------------------------------------------------------------|
- -------------------------------------------------------13-12---------|
- ------9-10-9----------------------------9-10-9----------------13-10--|
- -7-10--------10-7-10---------------7-10--------10-7-10---------------|
- ---------------------11---8-11--8------------------------------------|
- ---------------------------------------------------------------------|
AP ..................................................................
-
- -------------------------------------------------------------|
- -------------------------------------------------------------|
- ---------------------------------------------5-5-4-4---------|
- -----2-3-2-----------------------2-3-2---------------6-6-3-3-|
- -0-3-------3-0-3-------------0-3-------3-0-3-----------------|
- -----------------6---3-6--3----------------------------------|
AP ...........................................................
PM ...............             ...............

[Riff 8, Gtr 1 & 2] - [01:17] - [01:28]
- -----------------------|-------------------------|
- -----------------------|-------------------------|
- -----------------------|-------------------------|
- -----------------------|-------------------------|
- -(Two times)-----------|-(Two times)-------------|
- -8-5-7-5-4-1-4-1-0-1-0-|-8-5-7-5-4br-1-4-1-0-1-0-|
-
- -----------------------------------------------|
- -----------------------------------------------|
- -----------------------------------------------|
- -0~-(1st ----0~-(2nd ----0~-(3rd ----0~-(4th --
- -0~- time)-000~- time)-000~- time)-000~- time)-|
- -0~--------000~--------000~--------000~--------|
PM           ..          ..          ..

[Riff 9, Gtr 1 & 2] - [01:28] - [01:39]----| 4x
- -----------------------------------------|
- -----------------------------------------|
- -----------------------------------------|
- -8-5-7-5-4-1-4-1-------------------------|
- -8-5-7-5-4-1-4-1-0-1-0-------------------|
- -8-5-7-5-4-1-4-1-0-1-0-------------------|
PM                 .....

[Riff 10, Gtr 1 & 2] - [01:39] - [01:50]----| 4x
- ------------------------------------------|
- ------------------------------------------|
- ------------------------------------------|
- -/8-5-7-5-4-4h5p4-1-4-1-0-1---------------|
- -----(Seperate Guitars)-------------------|
- -/8-5-7-5-4-4h5p4-1-4-1-0-1---------------|

[Riff 11, Gtr 1 & 2] - [01:50] - []----| 4x
- -------------------------------------|
- -------------------------------------|
- -------------------------------------|
- -8--5---7--4--1--4-1-0--1------------|
- -----(Seperate Guitars)--------------|
- -8--5---7--4--1--4-1-0--1------------|
PM ........................
AP ........................

[Riff 12, Gtr 1 & 2] - [02:01] - [02:02]----| 1x
- ------------------------------------------|
- ------------------------------------------|
- ------------------------------------------|
- ------------------------------------------|
- ------------------------------------------|
- -0wbd~--

[Riff 13, Gtr 1 & 2] - [02:02] - [02:09]----------------------------| 1x
- ------------------------------------------------------------------|
- ------------------------------------------------------------------|
- ------------------------------------------------------------------|
- -------------------------------3-------------------------------3--|
- -000-111-444-4-555-444-0-1-0-1---000-111-444-4-555-444-0-1-0-1----|
- -000-111-444-4-555-444-0-1-0-1---000-111-444-4-555-444-0-1-0-1----|
PM .............................   .............................

[Riff 14, Gtr 1 & 2] - [02:02] - [02:10]----| 1x
- ------------------------------------------|
- ------------------------------------------|
- ------------------------------------------|
- -------1-------1--------------------------|
- -0-1-4---0-1-4----------------------------|
- -0-1-4---0-1-4----------------------------|
PM .....   .....

[Riff 13, Gtr 1 & 2] - [02:10] - [02:17]----| 1x
[Riff 14, Gtr 1 & 2] - [02:17] - [02:18]----| 1x

[Riff 15, Gtr 1 & 2] - [02:18] - [03:30]--------| 6x
- ----------------------------------------------|
- ----------------------------------------------|
- ----------------------------------------------|
- ----1---1---1---------1--------1---1----------|
- -014-014-014-014-1-014-014-1---1-1-1-11-------|
- -014-014-014-014---014-014---1-1-1-1-11-[3v]--|
PM ... ... ... ...   ... ...   .   .   ..

Play these harmonics in this order for each ending of Riff 15,
This includes the one shown above.
- -----------------------------------------------------|
- -----------------------------------------------------|
- -----------------[5]----------------------------[5]~-|
- ------[3br]---------------[3br]------[3br]-----------|
- -----------------------------------------------------|
- -[3v]-------[3v]-----[3v]-------[3v]-------[3v]------|
AP                 ...                            ...

[Symbols]

br     Bend & Release
PM ... Palm Mute notes with ... under them
[ ]    Harmonic
b      Bend
~      Let Ring
AP ... Alternate Pick notes with ... under them
       (Must hit each written note more than once)
/      Slide Up
h      Hammer On
p      Pull Off
wbd    Wammy Bar Down
v      Vibrato





Comments


Popular Arsonists Get All The Girls tabs & chords
Beast Fist Tabs
Buisness In The Front Tabs
City Of Angels Cakewalk Tabs
City Of Angels Cakewalk 1 Tabs
Jazzy Geoffrey Tabs
Save The Castle Screw The Princess Tabs
Scobra Vs Cupcake Battle Of The Buldge Tabs
Scobra Vs. Cupcake: Battle Of The Bulge 1 Tabs
The 42nd Ego 1 Tabs
Violence In Fluid: Triceratops Tabs


Song lyrics



↑ Back to top | Tablatures and chords are parodies/interpretations of the original songs. You may use it for private study, scholarship, research or language learning purposes only
© 2014 AZChords.com Contact us | Privacy policy | DMCA | Add/correct tabs | Request tabs | Top 50 tabs