>
 >
The 42nd Ego 1

The 42nd Ego 1 Guitar Tabs

Arsonists Get All The Girls - The 42nd Ego 1 chords, tabs, tablatures, lyrics

Guitar lessons | Add/correct | Request | Top 50 tabs Artists:  A B C D E F G H I J K L M N O P Q R S T U V W X Y Z 0-9

The 42nd Ego 1 Guitar Tabs – Arsonists Get All The Girls

CD, Sheet music, Poster

Do you like The 42nd Ego 1? Share with your friends now
TabsTabs v2
Artist - Arsonists Get All The Girls
Song - The 42nd Ego
Album - Portals

Pre chug riff(quietly)
D|-------------------------------------------------------------------------|
A|-------------------------------------------------------------------------|
F|-------------------------------------------------------------------------|
C|-------------------------------------------------------------------------|
G|-------------------------------------------------------------------------|
C|1-2-1-2-3-2-1-2----------------------------------------------------------|

chug riff
D|---------------------------------|----------------------------------------|
A|-This part might just be between-|----------------------------------------|
F|--2nd and 3rd -its hard to tell--|----------------------------------------|
C|---------------------------------|----------------------------------------|
G|-112-112-32-112--112-112-332-112-|-000-000--000-000--000-000--000---------|
C|-112-112-32-112--112-112-332-112-|-000-000--000-000--000-000--000-<3>~----|
   ... ... .. ...  ... ... ... ...   ... ...  ... ...  ... ...  ...


D|-------------------------------------------------------------------------|
A|-------------------------------------------------------------------------|
F|-------------------------------------------------------------------------|
C|-------------------------------------------------------------------------|
G|-3-2-3-2-3--6-6--3-2-3-2-3--6-6--3-2-3-2-3--6-6--5-4-5-4-5--2-2----------|
C|-3-2-3-2-3--6-6--3-2-3-2-3--6-6--3-2-3-2-3--6-6--5-4-5-4-5--2-2----------|
   . . . . .       . . . . .       . . . . .       . . . . .

Tremolo picked part
D|--------------------------------------------------|
A|--------------------------------------------------|
F|---------------------------------555-444----------|
C|-----------------------2-3---------------666-333--|
G|-------------------0-3-----3-0-3------------------|
C|-666-333-666-333----------------------------------|


D|---------------------------------------------------------------|
A|---------------------------------------------------------------|
F|----------------------------------------------555-444----------|
C|-----2-3----------------------------2-3---------------666-333--|
G| 0-3-----3-0-3------------------0-3-----3-0-3------------------|
C|---------------666-333-666-333---------------------------------|


D|----|---------------------|-----------------------------------------------|
A|----|---------------------|-----------------------------------------------|
F|----|---------------------|-----------------------------------------------|
C|-0--|---------------------|-8-5-7-5-4-1-4-1-0-1---------------------------|
G|-0--|---------------------|-8-5-7-5-4-1-4-1-0-1---------------------------|
C|-0--|-8-5-7-5-4-1-4-1-0-1-|-8-5-7-5-4-1-4-1-0-1---------------------------|

"Solo" Thing
D|-------------------------------------------------------------------------|
A|-------------------------------------------------------------------------|
F|-------------------------------------------------------------------------|
C|-8-5-7-5-4-4h5p4-1-4-1-0-1-----------------------------------------------|
G|-------------------------------------------------------------------------|
C|-------------------------------------------------------------------------|


D|-------------------------------------------------------------------------|
A|-------------------------------------------------------------------------|
F|-------------------------------------------------------------------------|
C|-------------------------------------------------------------------------|
G|-888-555-777-555-444-111-444-111-000-111---------------------------------|
C|-888-555-777-555-444-111-444-111-000-111---------------------------------|
   ... ... ... ... ... ... ... ... ... ...

Breakdown
D|----|---------------------------------------------------------------------|
A|----|---------------------------------------------------------------------|
F|----|---------------------------------------------(2X)--------------------|
C|-0--|--------------------------------------------------------1-------1----|
G|-0--|-000-111-444-111-000-111-000-444-111-000-111------0-1-4---0-1-4------|
C|-0--|-000-111-444-111-000-111-000-444-111-000-111------0-1-4---0-1-4------|
        ... ... ... ... ... ... ... ... ... ... ...      . . .   . . .

Outtro
D|-------------------------------------------------------------------------|
A|-------------------------------------------------------------------------|
F|-------------------------------------------------------------------------|
C|-------1-------1-------1----------------1-------1-------1----------------|
G|-0-1-4---0-1-4---0-1-4---0-1-4-1--0-1-4---0-1-4---0-1-4---0-1-4----------|
C|-0-1-4---0-1-4---0-1-4---0-1-4----0-1-4---0-1-4---0-1-4---0-1-4-<3>~-----|
   . . .   . . .   . . .   . . .    . . .   . . .   . . .   .


Palm Mute       .
Pinch Harmonic <3>
Vibrato         ~
Hammeron        h
Pulloff         p





Comments


Popular Arsonists Get All The Girls tabs & chords
Scobra Vs. Cupcake: Battle Of The Bulge Bass Tabs
Beast Fist Tabs
Buisness In The Front Tabs
City Of Angels Cakewalk Tabs
City Of Angels Cakewalk 1 Tabs
Portals Intro Tabs
Robando De Los Muertos Intro Tabs
Save The Castle Screw The Princess Tabs
Scobra Vs. Cupcake: Battle Of The Bulge 1 Tabs
Symphony Of Baseball Bats Tabs


Song lyrics



↑ Back to top | Tablatures and chords are parodies/interpretations of the original songs. You may use it for private study, scholarship, research or language learning purposes only
© 2014 AZChords.com Contact us | Privacy policy | DMCA | Add/correct tabs | Request tabs | Top 50 tabs