» » »

Arsonists Get All The Girls, Scobra Vs. Cupcake: Battle Of The Bulge Bass tabs (ver.1)

Artists:  A B C D E F G H I J K L M N O P Q R S T U V W X Y Z # 

Scobra Vs. Cupcake: Battle Of The Bulge Bass tabs (ver.1)

Arsonists Get All The Girls Tabs
Rating:
0/5 (0 votes)
Scobra Vs. Cupcake: Battle Of The Bulge lessons Tabs too difficult? Try these video lessons and learn fast
                Arsonists Get All The Girls - Scobra Vs CupCake: Battle Of The Bulge
En Bajwo segun io.


 el "INTRO"
[------------------------------------------------------------------]
[------------------------------------------------------------------]
[-------------------------------------------------------7----------]
[--0-----8-7-8-3-5-3-5---0----8-7-8-3-5-3-5----8---8-7-8--8-7h8p7--]


[----------------------]
[----------------------]
[-----------7----------]X4
[--8---8-7-8--8-7h8p7--]

 Lo k sigue

[------------------------------------]
[------------------------------------]X2
[------------------------------------]
[--0-0-000-4444---0-0-000-4444/10--0-]



[---------]
[---------]
[---------]
[----0----]


[-----------------------------]
[-----------------------------]X4
[-----------------------------]
[--0-0-000-4~~-0-0-000-434543-]

[---------]
[---------]
[---------]
[----0~~--]


[---------]  |-----------]
[---------]X4|-----------]
[---------]  |-----------]
[--8---10-]  |-8--10--0~-]


 Lo Shiakas
[--------------]
[--------------]X24
[--------------]
[--6-2-0-2-3-0-]


[-----------------]--|-----------------]
[-----------------]x5|-----------------]
[-----------------]--|-----------------]
[--0-5555-0-3333--]--|--0-55555555555--]

El bajo despues de lo de arribiyia toka esto todo el tiempo
[------------------------------]
[------------------------------]X10 
[------------------------------]
[--5-55-55-55-0-3-00-3-0-33-0--]
            
Submit corrections

comments powered by Disqus
↑ Back to top | Arsonists Get All The Girls Bass for Scobra Vs. Cupcake: Battle Of The Bulge. Lyrics for acoustic guitar and electric guitar. Tablatures and chords are parodies/interpretations of the original songs. You may use it for private study, scholarship, research or language learning purposes only