» » »

Arsonists Get All The Girls, Scobra Vs. Cupcake: Battle Of The Bulge Tabs (ver.1)

Artists:  A B C D E F G H I J K L M N O P Q R S T U V W X Y Z # 

Scobra Vs. Cupcake: Battle Of The Bulge Tabs (ver.1)

Arsonists Get All The Girls Tabs
 Rating:
4/5 (4 votes)
Scobra Vs. Cupcake: Battle Of The Bulge lessons Tabs too difficult? Try these video lessons and learn fast
                -------------------------------------------------------------------------------
                             Scobra Vs. Cupcake : Battle of The Buldge
-------------------------------------------------------------------------------

Tuning: Drop C Tuning [CGCFAD]


These tabs seem correct to me, I've played along with the track many times.

INTRO (0:00 - 0:29)
D|---------------------------------------------------------------------------------------|
A|---------------------------------------------------------------------------------------|
F|---------------------------------------------------------------------------------------|
C|---------------------------------------------------------7-------------------7---------|(4x)
G|--0-----8-7-8-3-5-3h0---0-----8-7-8-3-5-3h0---8-----8-7-8-8-7h0---8-----8-7-8-8-7h0----|
C|--0---------------------0---------------------8-------------------8--------------------|
          Pull-Offs

CONT. (0:29 - 0:37)
D|----------------------------------------------|
A|----------------------------------------------|
F|----------------------------------------------|
C|----------------------------------------------|(2x)
G|--0--0-000-4--44-4444-0--0-000--444/101010--0-|
C|--0--0-000-4--44-4444-0--0-000--444/101010--0-|



Drum (0:37 - 0:40 )


D|-----|
A|-----|
F|-----|
C|-----|
G|--0--|
C|--0--|

Robot/Static (0:40 - 0:43)



Sort of Breakdown (0:43 - 0:57)
D|--------------------------------------------|
A|--------------------------------------------|
F|--------------------------------------------|
C|--------------------------------------------|(4x)
G|--00000000-4--4-4--000000-3-4-3-4-8-7-7-----|
C|--00000000-4--4-4--000000-3-4-3-4-8-7-7-----|


 (0:57 - 1:00) 
D|-------------------------|
A|-------------------------|
F|-------------------------|
C|-----------------------8-|
G|--4----4--4-4--4-444---8-|
C|--4----4--4-4--4-444---8-|
    r                r 

  (1:00 - 1:10)
D|----------------------------------------------------------|
A|----------------------------------------------------------|
F|----10910-----121012--141414141212121210101010h12h10h9----|
C|----------------------------------------------------------|(2x)
G|-8--------10----------------------------------------------|
C|-8--------10----------------------------------------------|

 (1:10 - 1:17)
D|----------------------------------------------------------|
A|----------------------------------------------------------|
F|----141214-----151415--171717171515151514141414h15h14h12--|
C|----------------------------------------------------------|(2x)
G|-8---------10---------------------------------------------|
C|-8---------10---------------------------------------------|


  CONT (1:18 - 1:20)
D|------------|
A|------------|
F|------------|
C|--8--10--0--|
G|--8--10--0--|
C|------------|


  (1:22 - 1:33)
D|---------------------------------------|
A|---------------------------------------|
F|---------------------------------------|
C|---------------------------------------| (4x)
G|--6-2-0-2-3-2-0-------6-2-0-2-3-2-0----|
C|--6-2-0-2-3-2-0-------6-2-0-2-3-2-0----|


  CONT (1:34 - 1:44)
D|-----------------------------------------|--|
A|-----------------------------------------|---|
F|-----------------------------------------|---|
C|-------------------------------------(x2)|---| ( repeat all twice )
G|--6-2-0-2-3-2-0-------6-2-0-2-3-2-0------|---|
C|--6-2-0-2-3-2-0-------6-2-0-2-3-2-0------|-3*|
          • • • •             • • • •      
 

(1:44 - 1:56) SLOWER
D|---------------------------------------|
A|---------------------------------------|
F|---------------------------------------|
C|---------------------------------------| (4x)
G|--6-2-0-2-3-2-0-------6-2-0-2-3-2-0----|
C|--6-2-0-2-3-2-0-------6-2-0-2-3-2-0----|


 (1:57 - 2:14)
D|---------------------------------------|
A|---------------------------------------|
F|--7-7-7-77--101010-1010----------------|
C|--x-x-x-xx-----------------------------| (4x)
G|--5-5-5-55--8-8-8--88-----5555-0-3333--|
C|--------------------------5555-0-3333--|

 (2:15 - 2:18)
D|-------------------------------------------|
A|-------------------------------------------|
F|--7-7-7-77--101010-1010-14141414-12121212--|
C|--x-x-x-xx--------------x-x-x-x--x-x-x-x---| 
G|--5-5-5-55--8-8-8--88---12121212-10101010--|
C|-------------------------------------------|

 (2:19 - 2:23)
D|--------------------------------------------|
A|--------------------------------------------|
F|--7-7-7-77--101010-1010---------------------|
C|--x-x-x-xx----------------------------------|
G|--5-5-5-55--8-8-8--88-----5-5-5-5-55555555--|
C|--------------------------5-5-5-5-55555555--|
                                    ••••••••  

 (2:24 - 2:56)
D|--------------------------------------------------------------------|
A|----------------------------------------------------------------3*--|
F|--5-5h6h5-3----------5-5h6h5-3----------5-5h6h5---------------------|
C|------------5-3-5--------------5-5-3------------5-3-5-----0-3-5-----| (6x)
G|------------------------------------------------------5-4-----------|
C|--------------------------------------------------------------------|

 Solo (2:57 3:10)
D|----------------------------------------------------------------------------------13b-15b--|
A|-----------------------------------------------------------------/13-/13b-1313-------------|
F|----------------5b-5/12-12-12-12-15-12----------12-15-12-----------------------15----------|
C|---------3-3--5------------------------15-12-15----------15-12-15--------------------------|
G|--3b-3-5-----------------------------------------------------------------------------------|
C|-------------------------------------------------------------------------------------------|

 (3:11 - 3:25)
D|-------------------------------|
A|-------------------------------|
F|-------------------------------|
C|-------------------------------|
G|--5-55-55-0-3h0-0-3h0-0-3h0-5--|
C|--5-55-55-0-3h0-0-3h0-0-3h0-5--|




| /  slide up
| h  hammer-on
| p  pull-off
| *  harmonic
| x  Mute note
| •  Palm Mute
===============================================================================
            
Submit corrections

comments powered by Disqus
↑ Back to top | Arsonists Get All The Girls Tabs for Scobra Vs. Cupcake: Battle Of The Bulge. Lyrics for acoustic guitar and electric guitar. Tablatures and chords are parodies/interpretations of the original songs. You may use it for private study, scholarship, research or language learning purposes only