>
 >
Scobra Vs. Cupcake: Battle Of The Bulge 1

Scobra Vs. Cupcake: Battle Of The Bulge 1 Guitar Tabs

Arsonists Get All The Girls - Scobra Vs. Cupcake: Battle Of The Bulge 1 chords, tabs, tablatures, lyrics

Guitar lessons | Add/correct | Request | Top 50 tabs Artists:  A B C D E F G H I J K L M N O P Q R S T U V W X Y Z 0-9

Scobra Vs. Cupcake: Battle Of The Bulge 1 Guitar Tabs – Arsonists Get All The Girls

CD, Sheet music, Poster

Do you like Scobra Vs. Cupcake: Battle Of The Bulge 1? Share with your friends now
Bass TabsTabsTabs v2
Arsonists get all the girls

Scobra VS Cupcake

i noticed a few of the tabs up here didnt sound right so heres mine with credit to

Intro
guitar 1+2
D--------------------------------------------|
A--------------------------------------------|
F--------------------------------------------|
C--------------------------------------------|
G--0-----8-7-8-3-5-3-5----0----8-7-8-3-5-3-5-|
C--0----------------------0------------------|

D--------------------------------------------|
A--------------------------------------------|
F--------------------------------------------|  X4 all
C------------7---------------------7---------|
G--8---8-7-8---8-7h8p7----8---8-7-8--8-7h8p7-|
C--8----------------------8------------------|

guitar 1+2
D---------------------------------------|
A---------------------------------------|
F---------------------------------------|  X2
C---------------------------------------|
G--0-0-000--4-44-4444--0-0-000--444/10--|
C--0-0-000--4-44-4444--0-0-000--444/10--|

D---------------------------------------|
A---------------------------------------|
F---------------------------------------|
C---0------------------0----------------|
G---0------------------0----------------|
C---0------------------0----------------|
Drum solo


Pause


Guitar 1+2
D------------------------------------------------------------------|
A------------------------------------------------------------------|
F------------------------------------------------------------------|  X2
C------------------------------------------------------------------|
G--0000000-4--0000000-4-2-0-4-2-0-0000000-4--0000000-4-2-0-4-2-0---|
C--0000000-4--0000000-4-2-0-4-2-0-0000000-4--0000000-4-2-0-4-2-0---|
p.m .......   ....... . . . . . . .......    ....... . . . . . .


Fill
Guitar 1
D---------------------------------------|
A---------------------------------------|
F---------------------------------------|
C---4~~~~~~~~~~~~~~~~~~~~~~~~~~~0-------|
G---4~~~~~~~~~~~~~~~~~~~~~~~~~~~0-------|
C---4~~~~~~~~~~~~~~~~~~~~~~~~~~~0-------|
p.m                             .


Guitar 2
D---------------------------------------|
A---------------------------------------|
F---------------------------------------|
C---4--------4--4--4--444--------0------|
G---4--------4--4--4--444--------0------|
C---4--------4--4--4--444--------0------|
p.m          .  .  .  ...        .


guitar 1+2
D------------------------------------------------------|
A------------------------------------------------------|
F---10-9-10-12-10-12-14141414-12121212-101010h12p10-9--|  X4
C------------------------------------------------------|
G------------------------------------------------------|
C------------------------------------------------------|


3rd and fourth time
Guitar 2
Harmony
D----------------------------------------------------------|
A----------------------------------------------------------|
F---14-12-14-15-14-15-17171717-15151515-14141414h15p14-12--|   X2
C----------------------------------------------------------|
G----------------------------------------------------------|
C----------------------------------------------------------|

Guiatr 1+2
D------------------|
A------------------|
F------------------|
C------------------|
G----2----4----6---|
C----2----4----6---|
p.m  .    .

D------------------------------------------------------------------------|
A------------------------------------------------------------------------|
F------------------------------------------------------------------------|
C--6--3h4-5/6\5-3h4--6--3h4-5/6\5-3h4--6--3h4-5/6\5-3h4--6--3h4-5/6\5--3-|  X2
G--6--3h4-5/6\5-3h4--6--3h4-5/6\5-3h4--6--3h4-5/6\5-3h4--6--3h4-5/6\5--3-|
C--6--3h4-5/6\5-3h4--6--3h4-5/6\5-3h4--6--3h4-5/6\5-3h4--6--3h4-5/6\5--3-|

D-----------------------------------------------------------------------------|
A-----------------------------------------------------------------------------|
F-----------------------------------------------------------------------------|
C--5/6--3h4--6-5-3-5--5/6--3h4--6-5-3-5--5/6--3h4--6-5-3-5--5/6--4h5--6-5-----|
G--5/6--3h4--6-5-3-5--5/6--3h4--6-5-3-5--5/6--3h4--6-5-3-5--5/6--4h5--6-5-6---| X2
C--5/6--3h4--6-5-3-5--5/6--3h4--6-5-3-5--5/6--3h4--6-5-3-5--5/6--4h5--6-5-----|
p.m          . . . .            . . . .            . . . .            . .

Slow!
D------------------------------------------------------------------|
A------------------------------------------------------------------|
F------------------------------------------------------------------|
C--6--3h4--6-5-3h5--6--3h4-5-6-3h5--6--3h4-5-6-3h5--6--3h4-5-6--3--|  X2
G--6--3h4--6-5-3h5--6--3h4-5-6-3h5--6--3h4-5-6-3h5--6--3h4-5-6--3--|
C--6--3h4--6-5-3h5--6--3h4-5-6-3h5--6--3h4-5-6-3h5--6--3h4-5-6--3--|

guitar 1
D------------------------------------------------------------------|
A------------------------------------------------------------------|
F-----------------------------------77777--10101010----------------|
C-----------------------------------xxxxx--x-x-x-x-----------------|
G-----------------------------------55555--8-8-8-8--0-5555-0-3333--|
C---------------------------------------------------0-5555-0-3333--|

D-----------------------------------------------------------------------|
A-----------------------------------------------------------------------|
F--77777--10101010------------------77777--10101010-1414141414-12121212-|
C--xxxxx--x-x-x-x-------------------xxxxx--x-x-x-x--x x x x x--x-x-x-x--|
G--55555--8-8-8-8--0-5555-0-3333----55555--8-8-8-8--1212121212-10101010-|
C------------------0-5555-0-3333----------------------------------------|


Guitar 2
D------------------------------------------------------------------|
A------------------------------------------------------------------|
F--77777--10101010------------------77777--10101010----------------|
C--xxxxx--x-x-x-x-------------------xxxxx--x-x-x-x-----------------|
G--55555--8-8-8-8--0-5555-0-3333----55555--8-8-8-8--0-5555-0-3333--|
C------------------0-5555-0-3333--------------------0-5555-0-3333--|

D------------------------------------------------------------------|
A------------------------------------------------------------------|
F--77777--10101010------------------77777--10101010----------------|
C--xxxxx--x-x-x-x-------------------xxxxx--x-x-x-x-----------------|
G--55555--8-8-8-8--0-5555-0-3333----55555--8-8-8-8--0-5555-0-3333--|
C------------------0-5555-0-3333--------------------0-5555-0-3333--|


guitar 1+2
D-----------------------------------|
A-----------------------------------|
F--77777--10101010------------------|
C--xxxxx--x-x-x-x-------------------|
G--55555--8-8-8-8--0-5555-55555555--|
C------------------0-5555-55555555--|

Guitar 1
D----------------------------------------------------------------|
A----------------------------------------------------------------|
F----------------------------------------------------------------|
C----------------------------------------------------------------|
G----------------------------------------------------------------|
C----------------------------------------------------------------|

guitar 2
D----------------------------------------------------------------|
A----------------------------------------------------------------|
F--5-5h6p3-------5-5h6p3--------5-5h6p3----------------------3*--|
C----------5-3-5---------5-5-3----------5-3-5---------0-3-5------|
G-----------------------------------------------5--4-------------|
C----------------------------------------------------------------|
p.m                                             .  .

Guitar 1
D----------------------------------------------------------------|
A----------------------------------------------------------------|
F----------------------------------------------------------------|
C----------------------------------------------------------------|  X3
G--5-------------5-5------------5-5-------------0-3-00-3-0-33----|
C--5-------------5-5------------5-5-------------0-3-00-3-0-33----|

guitar 2
D----------------------------------------------------------------|
A----------------------------------------------------------------|
F--5-5h6p3-------5-5h6p3--------5-5h6p3----------------------3*--|
C----------5-3-5---------5-5-3----------5-3-5---------0-3-5------|  X3
G-----------------------------------------------5--4-------------|
C----------------------------------------------------------------|
p.m                                             .  .

guitar 1
D----------------------------------------------------------------|
A----------------------------------------------------------------|
F--5-5h6p3-------5-5h6p3--------5-5h6p3----------------------3*--|
C----------5-3-5---------5-5-3----------5-3-5---------0-3-5------|  X3
G-----------------------------------------------5--4-------------|
C----------------------------------------------------------------|
p.m                                             .  .

guitar 2
D----------------------------------------------------------------|
A----------------------------------------------------------------|
F--8-8h9p6-------8-8h9p6--------8-8h9p6----------------------5*--|
C----------8-5-8---------8-8-5----------8-5-8---------5-7-8------|  X3
G-----------------------------------------------8--6-------------|
C----------------------------------------------------------------|


solo
guitar 1
D---------------------------------------------------------------------------------15fb-15~~-|
A---------------------------------------------------------------------------18br~-----------|
F-------------3-5-3-5b-3-5b/12-12-15-12------12-15-12----------/17-/18-/17b-----------------|
C---------3-5-----------------------15-12-15----------15-12-15------------------------------|
G--3b-3-5-----------------------------------------------------------------------------------|
C-------------------------------------------------------------------------------------------|


Guitar 2
D----------------------------------------------------------------|
A----------------------------------------------------------------|
F----------------------------------------------------------------|
C----------------------------------------------------------------|  X3
G--5-------------5-5------------5-5-------------0-3-0-2-0-3------|
C--5-------------5-5------------5-5-------------0-3-0-2-0-3------|
p.m                                             .   .   .


Guitar 1+2
D----------------------------------------------------------------|
A----------------------------------------------------------------|
F----------------------------------------------------------------|
C----------------------------------------------------------------|  X3
G--5-------------5-5------------5-5-------------0-3-0-2-0-3------|
C--5-------------5-5------------5-5-------------0-3-0-2-0-3------|
p.m                                             .   .   .

Guitar 2
D----------|
A----------|
F----------|
C----------|
G----5-----|
C----5-----|


The end





Comments


Popular Arsonists Get All The Girls tabs & chords
Beast Fist Tabs
Buisness In The Front Tabs
City Of Angels Cakewalk Tabs
Jazzy Geoffrey Tabs
Portals Intro Tabs
Robando De Los Muertos Intro Tabs
Save The Castle Screw The Princess Tabs
Scobra Vs Cupcake Battle Of The Buldge Tabs
Shoeshine For Neptune Tabs
The 42nd Ego 1 Tabs


Song lyrics



↑ Back to top | Tablatures and chords are parodies/interpretations of the original songs. You may use it for private study, scholarship, research or language learning purposes only
© 2014 AZChords.com Contact us | Privacy policy | DMCA | Add/correct tabs | Request tabs | Top 50 tabs