>
 >
We Are The Nightmare 1

We Are The Nightmare 1 Guitar Tabs

Arsis - We Are The Nightmare 1 chords, tabs, tablatures, lyrics

Guitar lessons | Add/correct | Request | Top 50 tabs Artists:  A B C D E F G H I J K L M N O P Q R S T U V W X Y Z 0-9

We Are The Nightmare 1 Guitar Tabs – Arsis

CD, Sheet music, Poster

Do you like We Are The Nightmare 1? Share with your friends now
Bass TabsTabsTabs v2
Arsis - We Are the Nightmare
Track 1 from the album, 'We Are the Nightmare'
Tuning: E Standard
I tabbed this myself, part by listening and part by watching Dagget006's video at

~ : hold note

^ : bend

h : hammer-on

p : pull-off

t : tap

e|-----------------------------------------------------------------------------|
b|-----------------------------------------------------------------------------|
g|-----------------------------------------------------------------------------|
d|-----------------------------------------------------------------------------|
a|-----------------------------------------------------------------------------|
e|-----------------------------------------------------------------------------|


clean guitar
e|-------------8~----------------------------------8~---------------------------|
b|-------6~----------------8~----10~--------6~--------------8~----0--8--10~-----|
g|----9~----9~----------------9~---------9~----9~--------------9~---------------|
d|----------------------9~-------------------------------9~---------------------|
a|-0~----------------0~---------------0~--------------0~------------------------|
e|------------------------------------------------------------------------------|

e|-------------8~----------------------------------8~----------------------------|
b|-------6~---------------8~----10~---------6~-----------------------------------|
g|----9~----9~---------------9~----------9~----9~--------------------------------|
d|---------------------9~--------------------------------------------------------|
a|-0~---------------0~----------------0~-----------------------------------------|
e|-------------------------------------------------------------------------------|

distorted guitar
e|------------------------------------------------------------------------------|
b|------------------------------------------------------------------------------|
g|-9-9-9-9-8-8-8-8--------------------------------------------------------------|
d|------------------7-7-7-7-6-6-6-6---------9-9-9-9-10-10-10-10-6-6-6-6---------|
a|-----------------------------------7-7-7-7------------------------------------|
e|------------------------------------------------------------------------------|

e|------------------------------------------------------------------------------|
b|------------------------------------------------------------------------------|
g|-9-8---9-8---9-8------------------9-8---9-8----------8----8---8-9-------------|
d|-7-6---7-6---7-6------------------7-6---7-6-----------------------------------|
a|-----0-----0-----0-0-000-0-0-000------0-----0-7-7-7---6-6--6------------------|
e|------------------------------------------------------------------------------|
*palm mutes

e|------------------------------------------------------------------------------|
b|------------------------------------------------------------------------------|
g|-9-8---9-8---9-8------------------9-8---9-8----------8----8---8-9-------------|
d|-7-6---7-6---7-6------------------7-6---7-6-----------------------------------|
a|-----0-----0-----0-0-000-0-0-000------0-----0-7-7-7---6-6--6------------------|
e|------------------------------------------------------------------------------|

e|------------------------------------------------------------------------------|
b|------------------------------------------------------------------------------|
g|-------8---8-9~------8-----8---8-9~----------11---11-12~----------------------|
d|------------------------------------------------------------------------------|
a|-7-7-7---7-----7-7-7---7-7---7-----10-10-10----10-----------------------------|
e|------------------------------------------------------------------------------|

e|------------------------------------------------------------------------------|
b|------------------------------------------------------------------------------|
g|------------------------------------------------------------------------------|
d|----------14------14---13~----------------------------------------------------|
a|-12-12-12---12-12---12--------------------------------------------------------|
e|------------------------------------------------------------------------------|

e|------------------------------------------------------------------------------|
b|------------------------------------------------------------------------------|
g|-------8---8-9~------8-----8---8-9~----------11---11-12~----------------------|
d|------------------------------------------------------------------------------|
a|-7-7-7---7-----7-7-7---7-7---7-----10-10-10----10-----------------------------|
e|------------------------------------------------------------------------------|

e|------------------------------------------------------------------------------|
b|------------------------------------------------------------------------------|
g|------------------------------------------------------------------------------|
d|----------14------14---13~----------------------------------------------------|
a|-12-12-12---12-12---12--------------------------------------------------------|
e|------------------------------------------------------------------------------|

e|------------------------------------------------------------------------------|
b|------------------------------------------------------------------------------|
g|-8---5------------------------------------------------------------------------|
d|-7---4---7-----------------------2-4-5-4-5-7-4-5-7-5-7-9----------------------|
a|-6---3---6---6-6---2----------------------------------------------------------|
e|---------5---5-5---0-0-0-0-0-0-0----------------------------------------------|

e|------------------------------------------------------------------------------|
b|------------------------------------------------------------------------------|
g|-8---5------------------------------------------------------------------------|
d|-7---4---7-----------------------2-4-5-4-5-7-4-5-7-5-7-9----------------------|
a|-6---3---6---6-6---2----------------------------------------------------------|
e|---------5---5-5---0-0-0-0-0-0-0----------------------------------------------|

e|------------------------------------------------------------------------------|
b|------------------------------------------------------------------------------|
g|-8---5------------------------------------------------------------------------|
d|-7---4---7-----------------------2-4-5-4-5-7-4-5-7-5-7-9----------------------|
a|-6---3---6---6-6---2----------------------------------------------------------|
e|---------5---5-5---0-0-0-0-0-0-0----------------------------------------------|

e|-----------------------------------------------------------------------------|
b|-----------------------------------------------------------------------------|
g|-8---5-----------------------------------------------------------------------|
d|-7---4---7-------------------------------------------------------------------|
a|-6---3---6-------------------------------------------------------------------|
e|---------5-------------------------------------------------------------------|

e|------------------------------------------------------------------------------|
b|------------------------------------------------------------------------------|
g|-------8---8-9~------8-----8---8-9~----------11---11-12~----------------------|
d|------------------------------------------------------------------------------|
a|-7-7-7---7-----7-7-7---7-7---7-----10-10-10----10-----------------------------|
e|------------------------------------------------------------------------------|

e|------------------------------------------------------------------------------|
b|------------------------------------------------------------------------------|
g|------------------------------------------------------------------------------|
d|----------14------14---13~----------------------------------------------------|
a|-12-12-12---12-12---12--------------------------------------------------------|
e|------------------------------------------------------------------------------|

e|------------------------------------------------------------------------------|
b|------------------------------------------------------------------------------|
g|-------8---8-9~------8-----8---8-9~----------11---11-12~----------------------|
d|------------------------------------------------------------------------------|
a|-7-7-7---7-----7-7-7---7-7---7-----10-10-10----10-----------------------------|
e|------------------------------------------------------------------------------|

e|-----------------------------------------------------------------------------|
b|-----------------------------------------------------------------------------|
g|-9--s--2---------------------------------------------------------------------|
d|-----------------------------------------------------------------------------|
a|-7--s--0---------------------------------------------------------------------|
e|-----------------------------------------------------------------------------|

e|------------------------------------------------------------------------------|
b|------------------------------------------------------------------------------|
g|-12-12---11-------------------------------------------------------------------|
d|-14-14---14-------------------------------------------------------------------|
a|-14-14---14-------------------------------------------------------------------|
e|-------0----0-0-0-0-0-0-0-0-0-0-0-0-------------------------------------------|

e|------------------------------------------------------------------------------|
b|------------------------------------------------------------------------------|
g|-12-12---11-------------9~------11^12~----------------------------------------|
d|-14-14---14----------7~------10~----------------------------------------------|
a|-14-14---14-------5~-------9~-------------------------------------------------|
e|-------0----0-0-0-------------------------------------------------------------|

e|------------------------------------------------------------------------------|
b|------------------------------------------------------------------------------|
g|-12-12---11-------------------------------------------------------------------|
d|-14-14---14-------------------------------------------------------------------|
a|-14-14---14-------------------------------------------------------------------|
e|-------0----0-0-0000-0-0-0000-0-0-0000----------------------------------------|


e|------------------------------------------------------------------------------|
b|------------------------------------------------------------------------------|
g|-12-12---11-------------9~------11^12~----------------------------------------|
d|-14-14---14----------7~------10~----------------------------------------------|
a|-14-14---14-------5~-------9~-------------------------------------------------|
e|-------0----0-0-0-------------------------------------------------------------|

e|------------------------------------------------------------------------------|
b|--------------------------------------0~--------------------------------------|
g|-12-12---11--------------------------------------------9~-------11^12~--------|
d|-14-14---14-----5--4--2~-------7~-------7----7-----7~------10~----------------|
a|-14-14---14-----7--5--3~---3s5~---5~-------5----5~------9~--------------------|
e|-------0----0-0---------------------------------------------------------------|

e|------------------------------------------------------------------------------|
b|--------------------------------------0~--------------------------------------|
g|-12-12---11--------------------------------------------9~-------11^12~--------|
d|-14-14---14-----5--4--2~-------7~-------7----7-----7~------10~----------------|
a|-14-14---14-----7--5--3~---3s5~---5~-------5----5~------9~--------------------|
e|-------0----0-0---------------------------------------------------------------|

Solo (Play chorus again under the solo)

e|------------------------------------12h15t20p15p12-t17p1512-------------------|
b|-15^17^15~-15^17^15~------------12-------------------------t20p1512-----------|
g|--------------------------------12--------------------------------------------|
d|------------------------------14----------------------------------------------|
a|----------------------------14------------------------------------------------|
e|-----------------------12h15--------------------------------------------------|

e|-------------------------------------------------------------------------------|
b|t17p15p12----------------------------------------------------------------------|
g|-----------t19p14p12-t17p14p12-12trill14---------------------------------------|
d|-------------------------------------------------------------------------------|
a|-------------------------------------------------------------------------------|
e|-------------------------------------------------------------------------------|

e|-8-7-5-------10-8-7--------12-10-8---------14-12-10---------------------------|
b|-------8-7-5--------10-8-7---------12-10-8----------13-12-10-15^17^15---------|
g|------------------------------------------------------------------------------|
d|------------------------------------------------------------------------------|
a|------------------------------------------------------------------------------|
e|------------------------------------------------------------------------------|

e|--------15h19p15------15h19p15---------7h12p7---7h12p7------------------------|
b|------17--------17--17---------17-----8-------8-8------8----------------------|
g|----16------------16-------------16--9---------9--------9---------------------|
d|------------------------------------------------------------------------------|
a|-----------------------------------------------------------7h9~-7h9p7h9~------|
e|------------------------------------------------------------------------------|

e|------------------------------------------------------------------------------|
b|---------------------------------------------10----13-12-10-15-13-12-15^17~---|
g|-----------------------9-10-12---11-9-12-11----12-----------------------------|
d|--------7-9-10-9-10-12---------7---7-9--9--9--9-------------------------------|
a|-7-9-10-----------------------------------------------------------------------|
e|------------------------------------------------------------------------------|

e|-------------------------------------15^17^15-15~-10-12-8-10--8---------------|
b|-17^15~~~----------------------------------------------------12-10-12-8~------|
g|----------------19-------17------16~------------------------------------------|
d|----------14-17---14-17----14-17----------------------------------------------|
a|------------------------------------------------------------------------------|
e|------------------------------------------------------------------------------|

e|--------7h10t12p10p7---7h10t12--------------------10h14t17p14p10--------------|
b|-------8------------8-8-------8-----------------12---------------12-12--------|
g|------7--------------9---------7--------------11-------------------11---------|
d|-----9--------------------------9-----------12--------------------------------|
a|-7h10----------------------------10p7s10h14-----------------------------------|
e|------------------------------------------------------------------------------|

e|-10h14t17p14p10--------------15^17^15~----------------------------------------|
b|----------------12------------------------------------------------------------|
g|------------------11----------------------------------------------------------|
d|--------------------12--------------------------------------------------------|
a|----------------------14p10---------------------------------------------------|
e|------------------------------------------------------------------------------|

e|-12-10-8------------------------12-10-8---------------------------------------|
b|---------12-10-8------------------------12-10-8-------------------------------|
g|-----------------11-9-7-------------------------11-9-7------------------------|
d|------------------------11-9-7-------------------------11-9-7-----------------|
a|------------------------------------------------------------------------------|
e|------------------------------------------------------------------------------|

e|-8p5---5h8s11p8-----8h11s14p11--------11h14s17p14------14h17------------------|
b|----7-7--------10-10-----------13---13------------16--16-----15~--------------|
g|-----8-----------9----------------14-----------------17-----------------------|
d|------------------------------------------------------------------------------|
a|------------------------------------------------------------------------------|
e|------------------------------------------------------------------------------|

distorted guitar
e|------------------------------------------------------------------------------|
b|------------------------------------------------------------------------------|
g|------------------------------------------------------------------------------|
d|---------------------------------2-4-5-4-5-7-4-5-7-5-7-9----------------------|
a|------------------------------------------------------------------------------|
e|------------------------------------------------------------------------------|

e|------------------------------------------------------------------------------|
b|------------------------------------------------------------------------------|
g|-8---5------------------------------------------------------------------------|
d|-7---4---7-----------------------2-4-5-4-5-7-4-5-7-5-7-9----------------------|
a|-6---3---6---6-6---2----------------------------------------------------------|
e|---------5---5-5---0-0-0-0-0-0-0----------------------------------------------|

e|------------------------------------------------------------------------------|
b|------------------------------------------------------------------------------|
g|-8---5------------------------------------------------------------------------|
d|-7---4---7-----------------------2-4-5-4-5-7-4-5-7-5-7-9----------------------|
a|-6---3---6---6-6---2----------------------------------------------------------|
e|---------5---5-5---0-0-0-0-0-0-0----------------------------------------------|

e|-----------------------------------------------------------------------------|
b|-----------------------------------------------------------------------------|
g|-8---5-----------------------------------------------------------------------|
d|-7---4---7-------------------------------------------------------------------|
a|-6---3---6-------------------------------------------------------------------|
e|---------5-------------------------------------------------------------------|

e|------------------------------------------------------------------------------|
b|------------------------------------------------------------------------------|
g|---------9-9-9-9-9-9-9-11-11-12-12-9-9-9-9-------------11-11-11-11------------|
d|---------------------------------------------10-10-10-10----------------------|
a|-7-7-7-7----------------------------------------------------------------------|
e|------------------------------------------------------------------------------|

e|------------------------------------------------------------------------------|
b|------------------------------------------------------------------------------|
g|---------9-9-9-9-9-9-9-11-11-12-12-8-8-8-8---------11-11-11-11----------------|
d|---------------------------------------------7-7-7-7--------------------------|
a|-7-7-7-7----------------------------------------------------------------------|
e|------------------------------------------------------------------------------|

e|------------------------------------------------------------------------------|
b|------------------------------------------------------------------------------|
g|---------9-9-9-9-9-9-9-11-11-12-12-9-9-9-9-------------11-11-11-11------------|
d|---------------------------------------------10-10-10-10----------------------|
a|-7-7-7-7----------------------------------------------------------------------|
e|------------------------------------------------------------------------------|

e|-------------------------------------------------------------------------------|
b|-------------------------------------------------------------------------------|
g|---------9-9-9-9-9-9-9-11-11-12-12---------------------------------------------|
d|-------------------------------------------------------------------------------|
a|-7-7-7-7-----------------------------------------------------------------------|
e|-------------------------------------------------------------------------------|

e|------------------------------------------------------------------------------|
b|------------------------------------------------------------------------------|
g|-9-9-9-9-8-8-8-8--------------------------------------------------------------|
d|------------------7-7-7-7-6-6-6-6---------9-9-9-9-10-10-10-10-6-6-6-6---------|
a|-----------------------------------7-7-7-7------------------------------------|
e|------------------------------------------------------------------------------|

e|------------------------------------------------------------------------------|
b|------------------------------------------------------------------------------|
g|-9-8---9-8---9-8------------------9-8---9-8----------8----8---8-9-------------|
d|-7-6---7-6---7-6------------------7-6---7-6-----------------------------------|
a|-----0-----0-----0-0-000-0-0-000------0-----0-7-7-7---6-6--6------------------|
e|------------------------------------------------------------------------------|

e|------------------------------------------------------------------------------|
b|------------------------------------------------------------------------------|
g|-9-8---9-8---9-8------------------9-8---9-8----------8----8---8-9-------------|
d|-7-6---7-6---7-6------------------7-6---7-6-----------------------------------|
a|-----0-----0-----0-0-000-0-0-000------0-----0-7-7-7---6-6--6------------------|
e|------------------------------------------------------------------------------|

e|------------------------------------------------------------------------------|
b|------------------------------------------------------------------------------|
g|-------8---8-9~------8-----8---8-9~----------11---11-12~----------------------|
d|------------------------------------------------------------------------------|
a|-7-7-7---7-----7-7-7---7-7---7-----10-10-10----10-----------------------------|
e|------------------------------------------------------------------------------|

e|------------------------------------------------------------------------------|
b|------------------------------------------------------------------------------|
g|------------------------------------------------------------------------------|
d|----------14------14---13~----------------------------------------------------|
a|-12-12-12---12-12---12--------------------------------------------------------|
e|------------------------------------------------------------------------------|

e|------------------------------------------------------------------------------|
b|------------------------------------------------------------------------------|
g|-------8---8-9~------8-----8---8-9~----------11---11-12~----------------------|
d|------------------------------------------------------------------------------|
a|-7-7-7---7-----7-7-7---7-7---7-----10-10-10----10-----------------------------|
e|------------------------------------------------------------------------------|

e|------------------------------------------------------------------------------|
b|------------------------------------------------------------------------------|
g|------------------------------------------------------------------------------|
d|----------14------14---13~----------------------------------------------------|
a|-12-12-12---12-12---12--------------------------------------------------------|
e|------------------------------------------------------------------------------|

e|------------------------------------------------------------------------------|
b|------------------------------------------------------------------------------|
g|-------8---8-9~------8-----8---8-9~----------11---11-12~----------------------|
d|------------------------------------------------------------------------------|
a|-7-7-7---7-----7-7-7---7-7---7-----10-10-10----10-----------------------------|
e|------------------------------------------------------------------------------|

e|------------------------------------------------------------------------------|
b|------------------------------------------------------------------------------|
g|------------------------------------------------------------------------------|
d|----------14------14---13~----------------------------------------------------|
a|-12-12-12---12-12---12--------------------------------------------------------|
e|------------------------------------------------------------------------------|

e|------------------------------------------------------------------------------|
b|------------------------------------------------------------------------------|
g|-------8---8-9~------8-----8---8-9~----------11---11-12~----------------------|
d|------------------------------------------------------------------------------|
a|-7-7-7---7-----7-7-7---7-7---7-----10-10-10----10-----------------------------|
e|------------------------------------------------------------------------------|

e|------------------------------------------------------------------------------|
b|------------------------------------------------------------------------------|
g|------------------------------------------------------------------------------|
d|----------14------14---13~----------------------------------------------------|
a|-12-12-12---12-12---12--------------------------------------------------------|
e|------------------------------------------------------------------------------|

e|------------------------------------------------------------------------------|
b|------------------------------------------------------------------------------|
g|-8---5------------------------------------------------------------------------|
d|-7---4---7-----------------------2-4-5-4-5-7-4-5-7-5-7-9----------------------|
a|-6---3---6---6-6---2----------------------------------------------------------|
e|---------5---5-5---0-0-0-0-0-0-0----------------------------------------------|

e|------------------------------------------------------------------------------|
b|------------------------------------------------------------------------------|
g|-8---5------------------------------------------------------------------------|
d|-7---4---7-----------------------2-4-5-4-5-7-4-5-7-5-7-9----------------------|
a|-6---3---6---6-6---2----------------------------------------------------------|
e|---------5---5-5---0-0-0-0-0-0-0----------------------------------------------|

e|------------------------------------------------------------------------------|
b|------------------------------------------------------------------------------|
g|-8---5------------------------------------------------------------------------|
d|-7---4---7-----------------------2-4-5-4-5-7-4-5-7-5-7-9----------------------|
a|-6---3---6---6-6---2----------------------------------------------------------|
e|---------5---5-5---0-0-0-0-0-0-0----------------------------------------------|

e|-----------------------------------------------------------------------------|
b|-----------------------------------------------------------------------------|
g|-8---5-----------------------------------------------------------------------|
d|-7---4---7-------------------------------------------------------------------|
a|-6---3---6-------------------------------------------------------------------|
e|---------5-------------------------------------------------------------------|

e|------------------------------------------------------------------------------|
b|------------------------------------------------------------------------------|
g|-12-12---11-------------------------------------------------------------------|
d|-14-14---14-------------------------------------------------------------------|
a|-14-14---14-------------------------------------------------------------------|
e|-------0----0-0-0-0-0-0-0-0-0-0-0-0-------------------------------------------|

e|------------------------------------------------------------------------------|
b|------------------------------------------------------------------------------|
g|-12-12---11-------------9~------11^12~----------------------------------------|
d|-14-14---14----------7~------10~----------------------------------------------|
a|-14-14---14-------5~-------9~-------------------------------------------------|
e|-------0----0-0-0-------------------------------------------------------------|

e|------------------------------------------------------------------------------|
b|------------------------------------------------------------------------------|
g|-12-12---11-------------------------------------------------------------------|
d|-14-14---14-------------------------------------------------------------------|
a|-14-14---14-------------------------------------------------------------------|
e|-------0----0-0-0000-0-0-0000-0-0-0000----------------------------------------|


e|------------------------------------------------------------------------------|
b|------------------------------------------------------------------------------|
g|-12-12---11-------------9~------11^12~----------------------------------------|
d|-14-14---14----------7~------10~----------------------------------------------|
a|-14-14---14-------5~-------9~-------------------------------------------------|
e|-------0----0-0-0-------------------------------------------------------------|

e|------------------------------------------------------------------------------|
b|--------------------------------------0~--------------------------------------|
g|-12-12---11--------------------------------------------9~-------11^12~--------|
d|-14-14---14-----5--4--2~-------7~-------7----7-----7~------10~----------------|
a|-14-14---14-----7--5--3~---3s5~---5~-------5----5~------9~--------------------|
e|-------0----0-0---------------------------------------------------------------|

e|------------------------------------------------------------------------------|
b|--------------------------------------0~--------------------------------------|
g|-12-12---11--------------------------------------------9~-------11^12~--------|
d|-14-14---14-----5--4--2~-------7~-------7----7-----7~------10~----------------|
a|-14-14---14-----7--5--3~---3s5~---5~-------5----5~------9~--------------------|
e|-------0----0-0---------------------------------------------------------------|

e|------------------------------------------------------------------------------|
b|--------------------------------------0~--------------------------------------|
g|-12-12---11--------------------------------------------9~-------11^12~--------|
d|-14-14---14-----5--4--2~-------7~-------7----7-----7~------10~----------------|
a|-14-14---14-----7--5--3~---3s5~---5~-------5----5~------9~--------------------|
e|-------0----0-0---------------------------------------------------------------|

e|------------------------------------------------------------------------------|
b|--------------------------------------0~--------------------------------------|
g|-12-12---11--------------------------------------------9~-------11^12~--------|
d|-14-14---14-----5--4--2~-------7~-------7----7-----7~------10~~~~~~~~---------|
a|-14-14---14-----7--5--3~---3s5~---5~-------5----5~------9~~~~~~~~~~~~---------|
e|-------0----0-0---------------------------------------------------------------|

e|-----------------------------------------------------------------------------|
b|-----------------------------------------------------------------------------|
g|-8---5-----------------------------------------------------------------------|
d|-7---4---7-------------------------------------------------------------------|
a|-6---3---6---6-6---2---------------------------------------------------------|
e|---------5---5-5---0---------------------------------------------------------|

that took forever





Comments


Popular Arsis tabs & chords
We Are The Nightmare Bass Tabs
A Diamond For Disease Tabs
Closer To Cold Tabs
Elegant And Perverse Tabs
Servants To The Night Tabs
The Face Of My Innocence Tabs
The Face Of My Innocence 1 Tabs
We Are The Nightmare Tabs


Song lyrics



↑ Back to top | Tablatures and chords are parodies/interpretations of the original songs. You may use it for private study, scholarship, research or language learning purposes only
© 2014 AZChords.com Contact us | Privacy policy | DMCA | Add/correct tabs | Request tabs | Top 50 tabs