>
 >
We Are The Nightmare

We Are The Nightmare Bass Tabs

Arsis - We Are The Nightmare chords, tabs, tablatures, lyrics

Guitar lessons | Add/correct | Request | Top 50 tabs Artists:  A B C D E F G H I J K L M N O P Q R S T U V W X Y Z 0-9

We Are The Nightmare Bass Tabs – Arsis

CD, Sheet music, Poster

Do you like We Are The Nightmare? Share with your friends now
Bass TabsTabsTabs v2
 Standard tuning

 INTRO
|---------------------------------------------------|
|---9-9-9-9-8-8-8-8---------------------------------|
|-------------------7-7-7-7-6-6-6-6---------9-9-9-9-|
|-----------------------------------7-7-7-7---------|
|
|-----------------------|
|-----------------------|
|---10-10-10-10-6-6-6-6-|
|-----------------------|

 RIFF
|--9p8-9p8-9p8--9p8-9p8-x-x-11-x-11-11h12------------------|
|--------------------------------------------------(X2)----|
|----------------------------------------------------------|
|----------------------------------------------------------|

 Verse
|------8-8h9-----8---8-8h9-------11-11h12-----9-x-9-8-------|
|-----------------------------------------------------------|(X2)
|--7-7-------7-7---7-------10-10----------7-7---------------|
|-----------------------------------------------------------|

 Breakdown
|----------------------------------------------------------|
|--------------------------------------------------(X3)----|
|--6-3-0-00------------------------------------------------|
|-----------0-0-0-0-0-0-0-0-0-0-0-0-0-0--------------------|
|
|-----------|
|-----------|
|--6-3-0-00-|
|-----------|

 (Verse 1)

 Pre-Chorus
|-12-12-x-11-----------------------12-12-x-11-----8------11-|
|-14-14-x-14-----------------------14-14-x-14---7-----10----|
|-14-14-x-14-----------------------14-14-x-14-5-----9-------|
|------------0-0-0-0-0-0-0-0-0-0-0--------------------------|
|
|-12-12-x-11-------------------------12-12-x-11----|
|-14-14-x-14-------------------------14-14-x-14----|
|-14-14-x-14-------------------------14-14-x-14----|
|------------00-0000-00-0000-00-0000------------00-|

|-----8------11-|
|---7-----10----|
|-5-----9-------|
|---------------|

 Chorus x 2
|-12-12-x-11-----------------------------4------9------11--|
|-14-14-x-14-------------------------7--------7-----10-----|
|-14-14-x-14-------7---5---3-3-3-3/5---5----5-----9--------|
|------------0-0-0---0---0---------------------------------|

 (Pre-Chorus x 2)

 (Breakdown x 1)

 Cool little tremalo part
|-9-11-12------11------|
|---------10-9----(x4)-|
|----------------------|
|----------------------|

 (Intro)

 (Riff)

 (Verse x 2)

 (Breakdown)

 (Pre Chorus)

 (Chorus x 4)

|-------------|
|-------------|
|--6-3-0-00---|
|-----------0-|





Comments


Popular Arsis tabs & chords
A Diamond For Disease Tabs
Closer To Cold Tabs
Elegant And Perverse Tabs
Servants To The Night Tabs
The Face Of My Innocence Tabs
The Face Of My Innocence 1 Tabs
We Are The Nightmare Tabs
We Are The Nightmare 1 Tabs


Song lyrics



↑ Back to top | Tablatures and chords are parodies/interpretations of the original songs. You may use it for private study, scholarship, research or language learning purposes only
© 2014 AZChords.com Contact us | Privacy policy | DMCA | Add/correct tabs | Request tabs | Top 50 tabs