>
 >
Father Figure 1

Father Figure 1 Guitar Tabs

Army Of Anyone - Father Figure 1 chords, tabs, tablatures, lyrics

Guitar lessons | Add/correct | Request | Top 50 tabs Artists:  A B C D E F G H I J K L M N O P Q R S T U V W X Y Z 0-9

Father Figure 1 Guitar Tabs – Army Of Anyone

CD, Sheet music, Poster

Do you like Father Figure 1? Share with your friends now
Bass TabsTabsTabs v2


b bend
r release bend
/ slide up
\ slide down
P.M. palm mute
h hammer on
p pull off
v vibrato
harmonics (lightly place finger over fret and strike ,
you should get a ringing sound)

Tuning: Baritone Gutiar (E E A D F# B)

-|----------------------------------------------------------------------------|
-|----------------------------------------------------------------------------|
-|----------------------------------------------------------------------------|
-|----------------------------------------------------------------------------|
-|-----------7/10-----------9/10-----------9\7-----------9/10-----------7\5---|
-|-0-0-0-0-0------0-0-0-0-0------0-0-0-0-0-----0-0-0-0-0------0-0-0-0-0-----0-|
   Intro P.M. 0's only

-------------------------------|----------------------------------------------|
-------------------------------|----------------------------------------------|
-------------------------------|----------------------------------------------|
-------------------------------|----------------------------------------------|
---------5\3--3-3-3-4-4-5-5-5--|----------------------------------------------|
-0-0-0-0------3-3-3-4-4-5-5-5--|----------------------------------------------|
              >>>>>>>>>>>>>>>Harmonics Move up frets

------|-----------------------------------------------------------------------|
------|-----------------------------------------------------------------------|
------|-----------------------------------------------------------------------|
------|-----------------------------------------------------------------------|
------|-----------7/10-----------9/10-----------9\7-----------9/10------------|
------|-0-0-0-0-0------0-0-0-0-0------0-0-0-0-0-----0-0-0-0-0------0-0-0-0-0--|
  Verse P.M. 0's only


-----------------------------------|------------------------------------------|
-----------------------------------|------------------------------------------|
-----------------------------------|------------------------------------------|
-----------------------------------|------------------------------------------|
-7\5-----------5\3-----------------|------------------------------------------|
-----0-0-0-0-0-----0-0-0-0-0-0-0-0-|------------------------------------------|

--|-0-------------0---------------8------------0---|-------------|-----------|
--|-8-------------8---------------10-----------8---|-------------|-----------|
--|-x-------------x---------------x------------x---|-------------|-x----x----|
--|------------------------------------------------|-------7---5-|-x----x----|
--|------------------------------------------------|-------------|-----------|
--|------------------------------------------------|-5-7-9---5---|---7----5--|
  G1 PreChorus         

--|---------|--|-------------|---------|-------------------------------------|
--|---------|--|-------------|---------|-------------------------------------|
--|---------|--|-------------|---------|-------------------------------------|
--|---------|7x|-------7---5-|---------|-------------------------------------|
--|---------|--|-------------|---------|-------------------------------------|
--|-0-0-0-0-|--|-5-7-9---5---|-x-7-x-5-|-------------------------------------|
  G2 P.M PreChoru 1st end      last end

-|-----------------------------------------|--|-------------------------------|
-|-----------------------------------------|--|-------------------------------|
-|-----------------------------------------|--|-------------------------------|
-|-x-x-x-x---------------x-x-x-x-----------|3x|-------------------------------|
-|-0-0-0-0---------------0-0-0-0-----------|--|-------------------------------|
-|-0-0-0-0-9/10-10-10-10-0-0-0-0-7/9-9-9-9-|--|-7-7-7-9-9-9-10-10-10-12-12-12-|
   Chorus P.M. Slightly

---------|--------------------------------------------------------------------|
---------|--------------------------------------------------------------------|
---------|--------------------------------------------------------------------|
---------|--------------------------------------------------------------------|
---------|--------------------------------------------------------------------|
-10-10-9-|--------------------------------------------------------------------|


-|---------|--|-----------------------|--|------------------------------|-----|
-|---------|--|----------7/9\7--------|--|------------------------------|-----|
-|---------|--|-6/7\6-----------6/7\6-|--|-/7\6/7\6/7\6/7\6/7\6/7\6/7\6-|-----|
-|-5-5-5-5-|--|--------7--------------|4x|------------------------------|-----|
-|-5-5-5-5-|--|-----------------------|--|------------------------------|-----|
-|---------|--|-----------------------|--|------------------------------|-----|
  Harmonics Verse G2

------|------------15/17\15----------|--|-----------|-------------------------|
------|-14/15\14------------14/15\14-|--|-/15\14/15-|-------------------------|
------|----------14------------------|--|-----------|-------------------------|
------|------------------------------|4x|-----------|-------------------------|
------|------------------------------|--|-----------|-------------------------|
------|------------------------------|--|-----------|-------------------------|
Verse 2 G3 in sync w G2                 G3 continue  w/ G2 >>>>>

----|-------15-----17----15--------------15-----17----17br-17br--13br--13br-\-|
----|-12/14-----14----14----14vv---13/15-----15----15------------12br--12br-\-|
----|-------------------------------------------------------------------------|
----|-------------------------------------------------------------------------|
----|-------------------------------------------------------------------------|
----|-------------------------------------------------------------------------|
   Solo Live !


----------10--10/11-10-----10---------14/15-15-14/15-15-14/15-15-14/15-15-15--|
-7/10--13---------------13----13-10\------------------------------------------|
------------------------------------------------------------------------------|
------------------------------------------------------------------------------|
------------------------------------------------------------------------------|
------------------------------------------------------------------------------|


-14-13v--13-12-11-10v----10---------------------------10--10/11-10-----10-----|
----------------------13----13-15br-15b--r---7/10--13---------------13----13--|
------------------------------------------------------------------------------|
------------------------------------------------------------------------------|
------------------------------------------------------------------------------|
------------------------------------------------------------------------------|


--------------------------------------------------17b-vvv-vvvv-vv--|----------|
-10\-10-8-6-12-10-8-13-12-10-15-13-12-15-13-15-13------------------|----------|
-------------------------------------------------------------------|----------|
-------------------------------------------------------------------|----------|
-------------------------------------------------------------------|----------|
-------------------------------------------------------------------|----------|


------|----------------------------------------------------------------------|
------|----------------------------------------------------------------------|
------|----------------------------------------------------------------------|
------|----------------------------------------------------------------------|
------|----------------------------------------------------------------------|
------|-------------------------------------3/5b-r\3-------------------------|
  Chorus Out G2

------|-15-15-15----15-15-15----15-15-15----15-15-15----15-15-15---15-15-15--|
------|-16-16-16----16-16-16----16-16-16----16-16-16----16-16-16---16-16-16--|
------|----------------------------------------------------------------------|
------|----------------------------------------------------------------------|
------|----------------------------------------------------------------------|
------|----------------------------------------------------------------------|
  Chorus Out G3

------|-----------------|---------------|-------------------------------------|
------|-----------------|---------------|-------------------------------------|
------|-0-2-4-0-5-4-2-0-|-0-2-4-0-5-4-2-|-------------------------------------|
------|-----------------|---------------|-------------------------------------|
------|-----------------|---------------|-------------------------------------|
------|-----------------|---------------|-------------------------------------|
   Chorus Out G4 Repeat           End



b bend
r release bend
/ slide up
\ slide down
P.M. palm mute
h hammer on
p pull off
v vibrato
harmonics (lightly place finger over fret and strike ,
you should get a ringing sound)

Standard (EADGBe)

-|----------------------------------------------------------------------------|
-|----------------------------------------------------------------------------|
-|----------------------------------------------------------------------------|
-|----------------------------------------------------------------------------|
-|----------------------------------------------------------------------------|
-|-0-0-0-0-0-7/10-0-0-0-0-0-9/10-0-0-0-0-0-9\7-0-0-0-0-0-9/10-0-0-0-0-0-7\5-0-|
   Intro P.M. 0's only

-------------------------------|----------------------------------------------|
-------------------------------|----------------------------------------------|
-------------------------------|----------------------------------------------|
--------------3-3-3-4-4-5-5-5--|----------------------------------------------|
--------------3-3-3-4-4-5-5-5--|----------------------------------------------|
-0-0-0-0-5\3--3-3-3-4-4-5-5-5--|----------------------------------------------|
              >>>>>>>>>>>>>>>Harmonics Move up frets

------|-----------------------------------------------------------------------|
------|-----------------------------------------------------------------------|
------|-----------------------------------------------------------------------|
------|-----------------------------------------------------------------------|
------|-----------------------------------------------------------------------|
------|-0-0-0-0-0-7/10-0-0-0-0-0-9/10-0-0-0-0-0-9/7-0-0-0-0-0-9/10-0-0-0-0-0--|
  Verse P.M. 0's only


-----------------------------------|------------------------------------------|
-----------------------------------|------------------------------------------|
-----------------------------------|------------------------------------------|
-----------------------------------|------------------------------------------|
-----------------------------------|------------------------------------------|
-7\5-0-0-0-0-0-5\3-0-0-0-0-0-0-0-0-|------------------------------------------|

--|-0-------------0--------------------------------|-------------|-----------|
--|-x-------------x---------------8----------------|-------------|-----------|
--|-9-------------9---------------9------------9---|-------------|-----------|
--|-9-------------9--------------------------------|-------------|-----------|
--|-7-------------7--------------------------------|-------7---5-|-----------|
--|------------------------------------------------|-5-7-9---5---|-x-7--x-5--|
  G1 PreChorus

--|---------|--|-------------|---------|-------------------------------------|
--|---------|--|-------------|---------|-------------------------------------|
--|---------|--|-------------|---------|-------------------------------------|
--|---------|7x|-------------|---------|-------------------------------------|
--|---------|--|-------7---5-|---------|-------------------------------------|
--|-0-0-0-0-|--|-5-7-9---5---|-x-7-x-5-|-------------------------------------|
  G2 P.M PreChoru 1st end      last end

-|-----------------------------------------|--|-------------------------------|
-|-----------------------------------------|--|-------------------------------|
-|-----------------------------------------|--|-------------------------------|
-|-----------------------------------------|3x|-------------------------------|
-|-----------------------------------------|--|-------------------------------|
-|-0-0-0-0-9/10-10-10-10-0-0-0-0-7/9-9-9-9-|--|-7-7-7-9-9-9-10-10-10-12-12-12-|
   Chorus P.M. Slightly

---------|--------------------------------------------------------------------|
---------|--------------------------------------------------------------------|
---------|--------------------------------------------------------------------|
---------|--------------------------------------------------------------------|
---------|--------------------------------------------------------------------|
-10-10-9-|--------------------------------------------------------------------|


-|---------|--|-----------------------|--|------------------------------|-----|
-|---------|--|-----------------------|--|------------------------------|-----|
-|---------|--|----------7/9\7--------|--|------------------------------|-----|
-|-5-5-5-5-|--|-8/9\8-----------8/9\8-|4x|-/9\8/9\8/9\8/9\8/9\8/9\8/9\8-|-----|
-|-5-5-5-5-|--|--------9--------------|--|------------------------------|-----|
-|---------|--|-----------------------|--|------------------------------|-----|
  Harmonics Verse G2

------|----------10/12\10--------|--|-------------------------------------|---|
------|-9/10\9------------9/10\9-|--|-/10\9/10\9/10\9/10\9/10\9/10\9/10\9-|---|
------|--------9-----------------|--|-------------------------------------|---|
------|--------------------------|4x|-------------------------------------|---|
------|--------------------------|--|-------------------------------------|---|
------|--------------------------|--|-------------------------------------|---|
Verse 2 G3 in sync w/ G2

----|-------------------------------------------------------------------------|
----|-------15-----17----15--------------15-----17----17br-17br--14br--14br---|
----|-12/14-----14----14----14vv---12/14-----14----14------------12br--12br---|
----|-------------------------------------------------------------------------|
----|-------------------------------------------------------------------------|
----|-------------------------------------------------------------------------|
   Solo


------------------------------------------------------------------------------|
--------------------------------------14/15-15-14/15-15-14/15-15-14/15-15-15--|
-------12-14--14/16-14-----14-14----------------------------------------------|
-12/14------------------14-------14\------------------------------------------|
------------------------------------------------------------------------------|
------------------------------------------------------------------------------|


------------------------------------------------------------------------------|
-14-13v--13-12-11-10v----10---------------------------------------------------|
----------------------12b---12-15br-15b--r---------12-14--14/16-14-----14-14--|
---------------------------------------------12/14------------------14--------|
------------------------------------------------------------------------------|
------------------------------------------------------------------------------|


----------------------------------------------------------------|-------------|
-----------------------------------------------17b-vvv-vvvv-vv--|-------------|
-----9-7-5-11-9-7-12-11-9-14-12-11-14-12-14-12------------------|-------------|
-14\------------------------------------------------------------|-------------|
----------------------------------------------------------------|-------------|
----------------------------------------------------------------|-------------|


------|----------------------------------------------------------------------|
------|----------------------------------------------------------------------|
------|----------------------------------------------------------------------|
------|----------------------------------------------------------------------|
------|----------------------------------------------------------------------|
------|-------------------------------------3/5b-r---------------------------|
  Chorus Out G2

------|----------------------------------------------------------------------|
------|-10-10-10----10-10-10----10-10-10----10-10-10----10-10-10---10-10-10--|
------|----------------------------------------------------------------------|
------|----------------------------------------------------------------------|
------|----------------------------------------------------------------------|
------|----------------------------------------------------------------------|
  Chorus Out G3

------|-----------------|---------------|-------------------------------------|
------|-----------------|---------------|-------------------------------------|
------|-----------------|---------------|-------------------------------------|
------|-0-2-4-0-5-4-2-0-|-0-2-4-0-5-4-2-|-------------------------------------|
------|-----------------|---------------|-------------------------------------|
------|-----------------|---------------|-------------------------------------|
   Chorus Out G4 Repeat           End





Comments


Popular Army Of Anyone tabs & chords
A Better Place Bass Tabs
A Better Place Tabs
Father Figure Tabs
Goodbye 1 Tabs
Goodbye 2 Tabs
It Doesn't Seem To Matter Tabs
Leave It Tabs
Stop Look And Listen Tabs
This Wasn't Supposed To Happen Tabs
Used To Know Her Tabs


Song lyrics



↑ Back to top | Tablatures and chords are parodies/interpretations of the original songs. You may use it for private study, scholarship, research or language learning purposes only
© 2014 AZChords.com Contact us | Privacy policy | DMCA | Add/correct tabs | Request tabs | Top 50 tabs