>
 >
Father Figure

Father Figure Guitar Tabs

Army Of Anyone - Father Figure chords, tabs, tablatures, lyrics

Guitar lessons | Add/correct | Request | Top 50 tabs Artists:  A B C D E F G H I J K L M N O P Q R S T U V W X Y Z 0-9

Father Figure Guitar Tabs – Army Of Anyone

CD, Sheet music, Poster

Do you like Father Figure? Share with your friends now
Bass TabsTabsTabs v2
Army of Anyone - "Father Figure"
Standard Tuning

The riffs are heavy on this one, since the main riff is doubled by Bass. 
Not to mention, Robert DeLeo plays an 8-string bass to beef the riff up! 
These are tuned EADG in octave pairs. 


Intro-     Notes with stars above are NH (touch string lightly)
           pm the open E string notes  
  Guitar 1
e|----------------------------------|---------------------------------|
B|----------------------------------|---------------------------------|
G|----------------------------------|---------------------------------|
D|----------------------------------|---------------------------------|
A|----------------------------------|---------------------------------|
E|-0-0-0-0-0-12/15--0-0-0-0-0-12/14-|-0-0-0-0-0-12\10--0-0-0-0-0-9/10-|
pm ^ ^ ^ ^ ^        etc

e|---------------------------------|-------------------------------------|
B|---------------------------------|-------------------------------------|
G|---------------------------------|-------------------------------------|
D|---------------------------------|-------------------------------------|
A|---------------------------------|-------------------*-*---*---*-*-*-*-|
E|-0-0-0-0-0-7\5---0-0-0-0-0-3/5---|-0-0-0-0-0-3\2---0-2-2.3-2.6-3-4-4-5-|


Verse is same as intro, but play the fourth bar as:
e|---------------------------------|
B|---------------------------------|
G|---------------------------------|
D|---------------------------------|  
A|---------------------------------| 
E|-0-0-0-0-0-3\2---0-0-0-0-0-0-0-0-|

play verse 2x (8 bars total of intro with different 4th bar)




Chorus - 

   Guitar 1 (the x indicates how many E's to play in each bar)
e|-----------|-----------|-----------|---------------------|
B|-----------|-----------|-----------|---------------------|
G|-----------|-----------|-----------|---------------------|
D|-----------|-----------|-----------|----------------7----|
A|-----------|-----------|-----------|------------5-7---5~-|
E|-0 x16-----|-0 x16-----|-0 x16-----|-0 x8---5-7----------|
 |
 | Guitar 2
e|-0---------|-0---------|-0---------|-0-------------------|
B|-0---------|-0---------|-0---------|-0-------------------|
G|-9---------|-7---------|-12--------|-9-------------------|
D|-9---------|-7---------|-12--------|-9-------------------|
A|-----------|-----------|-----------|---------------------|
E|-----------|-----------|-----------|---------------------|

repeat chorus, but the fourth bar changes to:

Guitar 1
e|-------------------------------|
B|-------------------------------|
G|-------------------------------|
D|-------------------------------|
A|-------------------8-----7-----|
E|-0-0-0-0-0-0-0-0---6-----5-----|
 |
 |Guitar 2
e|-0-----------------------------|
B|-0-----------------------------|
G|-1-----------------------------|
D|-2-----------------------------|
A|-2-----------------8-----7-----|
E|-0-----------------6-----5-----|

Chorus Jam Riff - played 2x (8 bars)
  play 3x                                        Chorus Ending
e|--------------------------------------|       |------------------------|
B|--------------------------------------|       |------------------------|
G|--------------------------------------|       |------------------------|
D|--------------------------------------|       |------------------------|
A|--------------------------------------|       |------------------------|
E|-0-0-0-0-0-15-15-15-0-0-0-0-0-14---14-|       |-12--14--15--17--15-14--|



Play Verse Again, but add in second guitar (maybe third?) at 2:20
e|-----------------------------------|  |-b11r9b11r9b11r9b11r9--|
B|-----------------------------------|  |-----------------------|
G|-----------------b9r7b9r7----------|  |-----------------------|
D|--------b7r6b7r6----------b7r6b7r6-|  |-b7_r6b7_r6b7_r6b7_r6--|
A|-----------------------------------|  |-----------------------|
E|-----------------------------------|  |-----------------------|
  play 4x                                Fifth Bar (harmonizer?)



Play Chorus but continue with harmonized part on Guitar 2/3




Solo                                                    divebomb notes -4
e|------------12----------|------------12--------12-|------------------|
B|-------15-------15------|-------15--------15b17---|---14v10-14vVV10--|
G|-/14------14--14---14~--|-/14------14--14---------|---11v7--11vVV7---|
D|------------------------|-------------------------|------------------|
A|------------------------|-------------------------|------------------|
E|------------------------|-------------------------|------------------|
   Solo


e|-----------------------------------|------10-------10------10------10--10-10---|
B|-----------------------------------|-14b15----14b15---14b15---14b15---------14-|
G|-------12-14-14b15-14-12-14-12-----|-------------------------------------------|
D|-12/14-------------------------14\-|-------------------------------------------|
A|-----------------------------------|-------------------------------------------|
E|-----------------------------------|-------------------------------------------|


e|------------------------------|----------------------|
B|-13~--13-12-11-10~------------|----------------------|
G|---------------------12-14p12-|-14b16-14b16_gr_____\-|
D|------------------------------|----------------------|
A|------------------------------|----------------------|
E|------------------------------|----------------------|

e|--------------------------------------|
B|--------------------------------------|
G|---------12-14--14b16--14-12-14p12----|
D|---12/14---------------------------14-|
A|--------------------------------------|
E|--------------------------------------|

e|--------------------------------------------------|
B|--------------------------------------------------|
G|--------------------12-------14-12----14-12-14-12-|
D|-14-12-10-/16-14-12----16-14-------16-------------|
A|--------------------------------------------------|
E|--------------------------------------------------|

Solo ends, Chorus Jam Riff Begins
e|-----------------|-----------------|
B|-15b17r15b17~~---|-(b17)-----------|
G|-----------------|-----------------|
D|-----------------|-----------------|
A|-----------------|-----------------|
E|-----------------|-----------------|

Guitar 1 play jam riff 4x to end song 

This riff is in background:

Extra Guitar:
  play 3x                             on 4th bar (long bend)
e|-0-0-0-0------0-0-0-0-----|        -----------------|
B|-5-5-5-5------5-5-5-5-----|        -----------------|
G|--------------------------|        -----------------|
D|--------------------------|        -----------------|
A|--------------------------|        -----------------|
E|--------------------------|        -5b__7r_____-----|


|Key:
===================
| /  slide up
| \  slide down
| h  hammer-on
| p  pull-off
| ~  vibrato
| x  Mute note (or rake)
| b  bend (bends with vibrato bar indicated)
| r  release bend
| v  whammy bend, or wide vibrato
| __ hold note when playing other string
| () hold note in next bar





Comments


Popular Army Of Anyone tabs & chords
Disappear Bass Tabs
Ain't Enough Tabs
Disappear 1 Tabs
Generation Tabs
Good Time To Loosen Tabs
Goodbye 1 Tabs
Goodbye 2 Tabs
Leave It Tabs
This Wasn't Supposed To Happen Tabs
Used To Know Her Tabs


Song lyrics



↑ Back to top | Tablatures and chords are parodies/interpretations of the original songs. You may use it for private study, scholarship, research or language learning purposes only
© 2014 AZChords.com Contact us | Privacy policy | DMCA | Add/correct tabs | Request tabs | Top 50 tabs