» » »

Army Of Anyone, Disappear Bass tabs (ver.1)

Artists:  A B C D E F G H I J K L M N O P Q R S T U V W X Y Z # 

Disappear Bass tabs (ver.1)

Army Of Anyone Tabs
 Rating:
4.2/5 (5 votes)
Disappear lessons Tabs too difficult? Try these video lessons and learn fast
1
                Army of Anyone - 'Disappear'
Drop D Bass Tuning

Brilliant bass lines by Robert DeLeo on this song. Reminds me of some of his 
basslines on STP's Core. Please rate/comment this tab. Thanks!


Main Riff (starting 0:08) played 2x

G|-------------------------------|-------------------------------|
D|-------------------------------|-------------------------------|
A|-3h5-5-5---0-3h5-5-5---0-3-0-3-|-3h5-5-5---0-3h5-5-5---0-5-0-5-|
D|-------------------------------|-------------------------------|

G|-----------------------------|-------------------------------|
D|-----------------------------|-------------------------------|
A|-3-3-3---2-3-3-3---2-3-3-3---|-------------------------3---3-|
D|-----------------------------|-5-5-5-5---5-5-5-5-5---5---5---|

G|-------------------------------|-------------------------------|
D|-------------------------------|-------------------------------|
A|-3h5-5-5---0-3h5-5-5---0-3-0-3-|-3h5-5-5---0-3h5-5-5---0-5-0-5-|
D|-------------------------------|-------------------------------|

G|-----------------------------|----------------------------------|
D|-----------------------------|------------------------------9---|
A|-2-3-3---2-3-3-3---2-3-3-7-9-|-10-10-10-----10-10-10-----10--10-|
D|-----------------------------|------------12-----------12-------|



Prechorus - played 2x
G|---------------------------|--------------------------------|
D|---------------------5-5---|-------------------10--9--------|
A|-0--0-3--3-5--5-7--7-----7-|--------7--7-8---10--10----10---|
E|---------------------------|-10--10-------------------------|

G|-------------------------------|-------------------------------|
D|-------------------------------|-------------------------------|
A|-3h5-5-5---0-3h5-5-5---0-3-0-3-|-3h5-5-5---0-3h5-5-5---0-5-0-5-|
D|-------------------------------|-------------------------------|




Chorus - play similarly 4x
G|-----------------------|---------------------------|
D|-----------------------|---------------------------|
A|-------------------0-3-|-3h5-5---0-3h5-5---0-5-3-0-|
D|-0-0-0---0-0-0---0-----|---------------------------|

"I try to disappear"



Play Main Riff Again (Verse 2)



(1:57) Part between Verse 2 and Prechorus
G|---------------------------|----------------------------|
D|-10---9---7---5-----4h5-7--|----------------------------|
A|------------------5--------|-3h5-5---0-3h5-5---0-5-0-5--|
D|---------------------------|----------------------------|




Play Prechorus Again


Play Chorus




Solo Section
G|-------------------------------|-------------------------------|
D|-------------------------------|-------------------------------|
A|-3h5-5-5---0-3h5-5-5---0-3-0-3-|-3h5-5-5---0-3h5-5-5---0-5-0-5-|
D|-------------------------------|-------------------------------|

G|-----------------------------|-------------------------------|
D|-----------------------------|-------------------------------|
A|-3-3-3---2-3-3-3---2-3-3-----|-------------------------3---3-|
D|-------------------------2-4-|-5-5-5-5---5-5-5-5-5---5---5---|

G|-------------------------------|-------------------------------|
D|-------------------------------|-------------------------------|
A|-3h5-5-5---0-3h5-5-5---0-3-0-3-|-3h5-5-5---0-3h5-5-5---0-5-0-5-|
D|-------------------------------|-------------------------------|

G|-----------------------------|----------------------------------|
D|-----------------------------|------------------------------9---|
A|-2-3-3---2-3-3-3---2-3-3-7-9-|-10-10-10-----10-10-10-----10--10-|
D|-----------------------------|------------12-----------12-------|

G|-------------------------------|-------------------------------|
D|-------------------------------|-------------------------------|
A|-3h5-5-5---0-3h5-5-5---0-3-0-3-|-3h5-5-5---0-3h5-5-5---0-5-0-5-|
D|-------------------------------|-------------------------------|




Play Chorus like normal for 8 bars 



(3:41) - Ending (Chorus part for Guitar, lyrics continue)
G|-----------------------------|-----------------------------|
D|-----------------------------|-----------------------------|
A|-------------------------5---|-3-3-3---2-3-3-3---2-3-2-3/--|
D|-0-0-0---0-0-0-0---0-0-7-----|-----------------------------|

G|----------------------------------|----------------------------------|
D|----------------------------------|----------------------------------|
A|-10-10-10--9-10-10-10--9-10-9-10--|----------------------------------|
D|----------------------------------|-10-10-10--9-10-10-10--9-10-9-10--|

G|-----------------------------|-----------------------------|
D|-----------------------------|-----------------------------|
A|-----------------------------|-----------------------0-5---|
D|-7-7-7---5-7-7-7---5-7-5-7---|-5-5-5---5-5-5-5---5-5-------|

G|-----------------------------|------------------------------------|
D|-----------------------------|------------------------------------|
A|-3-3-3---2-3-3-3---2-3-2-3/--|-10-10-10--9-10-10-10--10--------10-|
D|-----------------------------|--------------------------9h10-12---|

G|----------------------------------|-------
D|-----------------------------12---|-12----
A|-10-10-10--9-10-10-10--12h14---14-|-------
D|----------------------------------|-------
            
Submit corrections

comments powered by Disqus
↑ Back to top | Army Of Anyone Bass for Disappear. Lyrics for acoustic guitar and electric guitar. 1 Tablatures and chords are parodies/interpretations of the original songs. You may use it for private study, scholarship, research or language learning purposes only