>
 >
Disappear

Disappear Guitar Tabs

Army Of Anyone - Disappear chords, tabs, tablatures, lyrics

Guitar lessons | Add/correct | Request | Top 50 tabs Artists:  A B C D E F G H I J K L M N O P Q R S T U V W X Y Z 0-9

Disappear Guitar Tabs – Army Of Anyone

CD, Sheet music, Poster

Do you like Disappear? Share with your friends now
Bass TabsTabsTabs v2


d strum down
u strum up
h hammer on
p pull off
/ slide up
\ slide down
b bend
r release bend

Tuning  = D A E A A C#
Standard Tuning (Only For Solo)


------|-5h6--6-6--6-5-------------5-5-5h6--6-6--6-5--------------|------------|
------|-5----5-5--5-5-------------5-5-5----5-5--5-5--------------|------------|
------|-x----x-x--x-x-------------x-x-x----x-x--x-x--------------|------------|
------|----------------------------------------------------------|------------|
------|----------------------------------------------------------|------------|
------|----------------------------------------------------------|------------|
   G1 Intro



------|-x-------|------------|
------|-5-------|------------|
------|-5-------|------------|
------|-5-------|------------|
------|-5-------|------------|
------|-x-------|------------|
   G2 Intro Chord Strum

------|----------------------------------------------------------|------------|
------|----------------------------------------------------------|------------|
------|----------------------------------------------------------|------------|
------|----------------------------------------------------------|------------|
------|-3h5----5--3/5----5-5-5-5-5----3h5--5-5--5-5---5-5-5-5-5--|------------|
------|----------------------------------------------------------|------------|
   G6 Intro

----|-6--6--5---------6--6--5-----------6--6--5-----------6--6--5------------|
----|---------7p5-7p5----------7p5-7p5-----------5p3-5p3-----------7p5-7p5---|
----|------------------------------------------------------------------------|
----|------------------------------------------------------------------------|
----|------------------------------------------------------------------------|
----|------------------------------------------------------------------------|
   Verse D  Let Ring                          C

----|-6--6--5-----------6--6--5-----------|-----------------------------------|
----|----------7p5-7p5-----------7p5-7p5--|-----------------------------------|
----|-------------------------------------|-----------------------------------|
----|-------------------------------------|-----------------------------------|
----|-------------------------------------|-----------------------------------|
----|-------------------------------------|-----------------------------------|
   Verse Out

-|---------------------------------------6--6--5-----------6--6--5-----------|
-|----5p4-4----5p4-4-4-4------5--7p5-7p5----------7p5-7p5-----------7p5-7p5--|
-|-----------------------3--3------------------------------------------------|
-|-0--------0------------3---------------------------------------------------|
-|-0--------0----------------------------------------------------------------|
-|-x--------x----------------------------------------------------------------|
   PreChorus Riff "I watch how the world.." Let Ring

------|-8----------11---------10-----------9-----------|--|-------------------|
------|----9----------------------10-------------------|--|-------------------|
------|----------------9----------------------10-------|--|-------------------|
------|-------10----------8-----------10----------9----|--|-------------------|
------|------------------------------------------------|--|-------------------|
------|------------------------------------------------|--|-------------------|
  Chorus Let Ring

------|-8-----------11----------|---------------------------------------------|
------|----9--------------------|---------------------------------------------|
------|-----------------9-------|---------------------------------------------|
------|-------10-----------8----|---------------------------------------------|
------|-------------------------|---------------------------------------------|
------|-------------------------|---------------------------------------------|
  Chorus end



------|-----------------------------------------------------------------------|
------|-----------------------------------------------------------------------|
------|-15b16r15---16b-14-16b-14-15b17-vvv--17-16-14--------------------------|
------|----------------------------------------------17-----------------------|
------|--------------------------------------------------17-15-14b15----------|
------|---------------------------------------------------------------15-14---|
     Standard Tuning Solo Live!

------------------------------------------------------------------------------|
------------------------------------------------------------------------------|
-------------------------------------------------------------------9----9-11--|
--------------------------0-2p0---0-2-5-4--5-7p5-4-5-7-10-9---7/10---10-------|
-----0-2-2vv-2p0---2/5-vv-------4---------------------------------------------|
-8vv-------------3------------------------------------------------------------|


------------------------------------------------------------------------------|
-------------------------------------------------3---------------3------------|
-11-11--12-12p11-9-11-9-7-5--7-5-4-5-4-2-0-4b5r4---4b5r4-2-2p0----------7-----|
---------------------------------------------------------------5----3/5---5h7-|
------------------------------------------------------------------------------|
------------------------------------------------------------------------------|


------------------------------------------------------------------------|-----|
--------------------------------------------------17/19-17--------------|-----|
---9-----11---------13-------15----------17-----------------19-19-------|-----|
-7---7/9----9h11-11----11/13----13h15-15----15/17-----------------------|-----|
------------------------------------------------------------------------|-----|
------------------------------------------------------------------------|-----|


------|-8------------11-------------------10----------------------11---x-----|
------|----9-----------------------------------------------------------12----|
------|------------------9--------10-----------7-----10---10-----------9-----|
------|-------10------------8---------10----------8-----------10-------------|
------|----------------------------------------------------------------5-----|
------|----------------------------------------------------------------------|
  Outro                                                                5>G2





Comments


Popular Army Of Anyone tabs & chords
Disappear Bass Tabs
It Doesn't Seem To Matter Bass Tabs
Disappear 1 Tabs
Father Figure Tabs
Father Figure 1 Tabs
Good Time To Loosen Tabs
Goodbye Tabs
Leave It Tabs
Nonstop Tabs
A Better Place Ukulele


Song lyrics



↑ Back to top | Tablatures and chords are parodies/interpretations of the original songs. You may use it for private study, scholarship, research or language learning purposes only
© 2014 AZChords.com Contact us | Privacy policy | DMCA | Add/correct tabs | Request tabs | Top 50 tabs