>
 >
Disappear 1

Disappear 1 Guitar Tabs

Army Of Anyone - Disappear 1 chords, tabs, tablatures, lyrics

Guitar lessons | Add/correct | Request | Top 50 tabs Artists:  A B C D E F G H I J K L M N O P Q R S T U V W X Y Z 0-9

Disappear 1 Guitar Tabs – Army Of Anyone

CD, Sheet music, Poster

Do you like Disappear 1? Share with your friends now
Bass TabsTabsTabs v2
d strum down
u strum up
h hammer on
p pull off
/ slide up
\ slide down
b bend
r release bend



Standard tuning (E A D G b E)

------|-2h3--3--3-2----------------|------------------------------------------|
------|-3----3--3-3--5-5p3-5p3-3-3-|------------------------------------------|
------|-2----2--2-2--2-2---2---2-2-|------------------------------------------|
------|-0----0--0-0--0-0---0---0-0-|------------------------------------------|
------|----------------------------|------------------------------------------|
------|----------------------------|------------------------------------------|


---|-3--3--2----------3--3--2-----------3--3--2-----------3--3--2----------|--|
---|----------5p3-5p3----------5p3-5p3-----------3p1-3p1-----------5p3-5p3-|--|
---|-----------------------------------------------------------------------|--|
---|-----------------------------------------------------------------------|--|
---|-----------------------------------------------------------------------|--|
---|-----------------------------------------------------------------------|--|
  Verse

---|-3--3--2-----------3--3--2-----------|------------------------------------|
---|----------5p3-5p3-----------5p3-5p3--|------------------------------------|
---|-------------------------------------|------------------------------------|
---|-------------------------------------|------------------------------------|
---|-------------------------------------|------------------------------------|
---|-------------------------------------|------------------------------------|
  Verse Out

-|---------------------------------------3--3--2-----------3--3--2-----------|
-|----3p2-2----3p2-2-2-2------3--5p3-5p3----------5p3-5p3-----------5p3-5p3--|
-|-2---------------------5--5------------------------------------------------|
-|-2--------2------------5---------------------------------------------------|
-|-0--------0------------3---------------------------------------------------|
-|---------------------------------------------------------------------------|
   PreChorus Riff "I watch how the world.."


------|-----------------------------------------------------|--|--------------|
------|-10-----------10-----------12-----------12-----------|--|--------------|
------|-----11-----------11-----------12-----------12-------|--|--------------|
------|---------12-----------10-----------12-----------11---|--|--------------|
------|-----------------------------------------------------|--|--------------|
------|-----------------------------------------------------|--|--------------|
  Chorus

------|---------------------------|-------------------------------------------|
------|-10-----------10-----------|-------------------------------------------|
------|-----11-----------11-------|-------------------------------------------|
------|---------12-----------10---|-------------------------------------------|
------|---------------------------|-------------------------------------------|
------|---------------------------|-------------------------------------------|
  Chorus end

------|------------------|--|--------------|------------------|---------------|
------|------------------|--|--------------|------------------|---------------|
------|-12brbr-11--9--7--|--|-9brbr-11\7vv-|-9brbr-11\-/19vvv-|---------------|
------|------------------|2x|--------------|------------------|---------------|
------|------------------|--|--------------|------------------|---------------|
------|------------------|--|--------------|------------------|---------------|
  G2 During z2nd Verse        1st time end     2nd time end

------|-----------------------------------------------------------------------|
------|-----------------------------------------------------------------------|
------|-15b16r15---16b-14-16b-14-15b17-vvv--17-16-14--------------------------|
------|----------------------------------------------17-----------------------|
------|--------------------------------------------------17-15-14b15----------|
------|---------------------------------------------------------------15-14---|


------------------------------------------------------------------------------|
------------------------------------------------------------------------------|
-------------------------------------------------------------------9----9-11--|
--------------------------0-2p0---0-2-5-4--5-7p5-4-5-7-10-9---7/10---10-------|
-----0-2-2vv-2p0---2/5-vv-------4---------------------------------------------|
-8vv-------------3------------------------------------------------------------|


------------------------------------------------------------------------------|
-------------------------------------------------3---------------3------------|
-11-11--12-12p11-9-11-9-7-5--7-5-4-5-4-2-0-4b5r4---4b5r4-2-2p0----------7-----|
---------------------------------------------------------------5----3/5---5h7-|
------------------------------------------------------------------------------|
------------------------------------------------------------------------------|


------------------------------------------------------------------------|-----|
--------------------------------------------------17/19-17--------------|-----|
---9-----11---------13-------15----------17-----------------19-19-------|-----|
-7---7/9----9h11-11----11/13----13h15-15----15/17-----------------------|-----|
------------------------------------------------------------------------|-----|
------------------------------------------------------------------------|-----|

------|----------------------------------------------------------------------|
------|-10-----------12-------------------12---------------------13---10-----|
------|-----11-----------11-------12-----------9------12---12---------11-----|
------|---------12-----------10-------12----------10----------12------0------|
------|----------------------------------------------------------------------|
------|----------------------------------------------------------------------|
  Outro

----------------\-|-2h3--3---2------------|--|-2h3--3---2------------|--------|
----------------/-|-3----3---3--5-5p3-5p3-|--|-1----1---1--1-3p1-3p1-|--------|
----------------\-|-2----2---2--2-2---2---|--|-0----0---0--0-0---0---|--------|
----------------/-|-0----0---0--0-0---0---|2x|-2----2---2--2-2---2---|--------|
----------------\-|-----------------------|--|-----------------------|--------|
----------------/-|-----------------------|--|-----------------------|--------|





Comments


Popular Army Of Anyone tabs & chords
Father Figure Bass Tabs
This Wasn't Supposed To Happen Bass Tabs
A Better Place Chords
A Better Place Tabs
Father Figure 1 Tabs
Goodbye 2 Tabs
Leave It Tabs
Stop Look And Listen Tabs
This Wasn't Supposed To Happen Tabs
A Better Place Ukulele


Song lyrics



↑ Back to top | Tablatures and chords are parodies/interpretations of the original songs. You may use it for private study, scholarship, research or language learning purposes only
© 2014 AZChords.com Contact us | Privacy policy | DMCA | Add/correct tabs | Request tabs | Top 50 tabs