» » »

Arch Enemy, Losing Faith Tabs (ver.1)

Artists:  A B C D E F G H I J K L M N O P Q R S T U V W X Y Z # 

Losing Faith Tabs (ver.1)

Arch Enemy Tabs
 Rating:
4/5 (4 votes)
Losing Faith lessons Tabs too difficult? Try these video lessons and learn fast
                LOSING FAITH
                     From the Album BLACK EARTH(Japanese Version)
                     Copyright W.A.R Wrong Again Records 1996
                     Version 1.0 - November 2000

For Questions, Comments, Newest Version, or Corrections contact

Check Out Death Warp, With More Transcriptions On It:

Check Out 's Web Page, With More Transcriptions On It:
               

join the death/black tab emailing list by emailing 

..  - palm mute          /  - slide up to
 \  - slide down to      ~  - vibrato
 h  - hammer on          b  - bend
 p  - pull off            Suffixes for bend
                          ph - pinch harmonic
                           f - full bend    h - half bend
*  - see comment           r - release      t - tap bend
X  - percussion mute       ~ - vibrato bend
@  - slight palm mute     () - ghost note, sustained note
                        
Tune Down 2.5 steps to B
 Losing Faith
 
 Intro
|-----------------------------|
|-----------------------------|GTRS
|-----------------------------|I&II
|-----------------------------|
|-999999999999999999999--11\--|
|-777777777777777777777-------|
  ....................


 Riff A		                                             Play 2 Times
|-------------------------------------------------------------------------|
|-------------------------------------------------------------------------|GTRS
|-------------------------------------------------------------------------|I&II
|-------------------------------------------------------------------------|
|--------10-----10--9~----------10-----10p9-----7~---------10-----10--9~--|
|-0---0------0-----------0---0------0-------10------0---0------0----------|
      .      .               .      .                   .      .

|---------------|
|---------------|GTRS
|---------------|I&II
|---------------|
|----7-7----9-9-|
|-5--5-5-00-7-7-|
  .      ..



 Riff A.1                                                    Play 2 Times
|-------------------------------------------------------------------------|
|-------------------------------------------------------------------------|GTR
|-------------------------------------------------------------------------| I
|-------------------------------------------------------------------------|
|--------10-----10--9~----------10-----10p9-----7~---------10-----10--9~--|
|-0---0------0-----------0---0------0-------10------0---0------0----------|
|     .      .               .      .                   .      .          | 
|                                                                         |
|-------------------------------------------------------------------------|
|-------------------------------------------------------------------------|GTR
|-------------------------------------------------------------------------| II
|---------9------9--7~-----------9------9p7-----5~----------9------9--7~--|
|-------------------------------------------9-----------------------------|
|-0---0------0-----------0---0------0---------------0---0------0----------|
      .      .               .      .                   .      .



|---------------|
|---------------|GTR
|---------------| I
|---------------|
|----7-7----9-9-|
|-5--5-5-00-7-7-|
| .      ..     |
|               |
|---------------|
|---------------|GTR
|---------------| II
|---------------|
|----7-7----9-9-|
|-5--5-5-00-7-7-|
  .      ..


 Riff B                                         Play 3 Times
|------------------------------------------------------------|
|------------------------------------------------------------|GTRS
|--------------------------------------------------------p.h.|I&II 
|---------------------------------------------------7-6---*--|
|------8p7---5-----8p7---5-----5h7------8p7---5---------8-7--|
|-0-0------0---0-0-----0---0-0-----0-0------0---0-0----------|
  . .      .   . .     .   . .     . .      .   . .  
 Riff B.1
|------------------------------------------------------------|
|------------------------------------------------------------|GTRS
|------------------------------------------------------------|I&II 
|---------------------------------------------------7-6------|
|------8p7---5-----8p7---5-----5h7------8p7---5---------8-7--|
|-0-0------0---0-0-----0---0-0-----0-0------0---0-0----------|
  . .      .   . .     .   . .     . .      .   . .  

 


 Riff C                         Play 2 Times
|--------------------------------------------|
|--------------------------------------------|GTRS
|--------------------------------------------|I&II
|-11----7---9----5--7---11----7---9----------|
|--9----5---7----3--5----9----5---7----7--9--|
|--------------------------------------5--7--|

 Play Riff A    1 Time
 Play Riff A.1  1 Time
 
 Play Riff B    3 Times
 Riff B.2
|-----------------------------------------------------------------|
|-----------------------------------------------------------------|GTRS
|-----------------------------------------------------------------|I&II 
|---------------------------------------------------7-6-----------|
|------8p7---5-----8p7---5-----5h7------8p7---5---------8-7---(7)-|
|-0-0------0---0-0-----0---0-0-----0-0------0---0-0---------------|
 
 

 Solo
 
 Riff D 
|-------------------------------------------|
|-------------------------------------------|GTR
|-------------------------------------------| I
|-------------------------------------------|
|-6--4---6----------------------------------|
|-4--2---4--444-444-444-444-444-444-444-444-|
            ... ... ... ... ... ... ... ... 

|------------------------------------------------|
|------------------------------------------------|GTR
|------------------------------------------------| I
|------------------------------------------------|
|-6--4---6----------------------------------6--4-|
|-4--2---4--444-444-444-444-444-444-444-444-4--2-|
            ... ... ... ... ... ... ... ...

|--------------------------------------------------------------|
|-----------------2-----------------------------2--------------|GTR
|-----1---3---4-------4---3---1-----1---3---4-------4---3---1--| II
|--------------------------------------------------------------|
|--------------------------------------------------------------|
|-0-0---0---0---0---0---0---0---0-0---0---0---0---0---0---0----|
    .   .   .   .   .   .   .     .   .   .   .   .   .   .

|-------------------------------------|
|-------------------------------------|GTR
|-------------------------------------| I
|-------------------------------------|
|-6-----------------------------------|
|-4--444-444-444-444-444-444-444-444--|
     ... ... ... ... ... ... ... ...

|-------------------------------------------------|
|-------------------------------------------------|GTR
|-------------------------------------------------| I
|-------------------------------------------------|
|-6--4---6----------------------------------6--4--|
|-4--2---4-444-444-444-444-444-444-444-444--4--2--|
           ... ... ... ... ... ... ... ...
     
|--------------------------------------------------------------|
|-----------------2-----------------------------2--------------|GTR
|-----1---3---4-------4---3---1-----1---3---4-------4---3---1--| II
|--------------------------------------------------------------|
|--------------------------------------------------------------|
|-0-0---0---0---0---0---0---0---0-0---0---0---0---0---0---0----|
    .   .   .   .   .   .   .     .   .   .   .   .   .   .

 Riff E
|------------------------------------------------------------|
|------------------------------------------------------------|GTR
|----4-----4--3-----4-----4--3----------4-----4--3-----------| I
|-6-----6--------6-----6--------6~---6-----6-----------------|
|---------------------------------------------------4~---6~--|
|------------------------------------------------------------|
|                                                            |
|                                                            |
|------------------------------------------------------------|
|------------------------------------------------------------|GTR
|----4-----4--3-----4-----4--3----------4-----4--3-----------| II
|-6-----6--------6-----6--------6~---6-----6--------3~---5~--|
|------------------------------------------------------------|
|------------------------------------------------------------|


 Riff E.1
|------------------------------------------------------------|
|------------------------------------------------------------|GTRS
|-----4"------4"--3"------4"------4"--3"-------4"------4"--3"|I&II
|-6"------6"----------6"------6"----------6"-------6"--------|
|------------------------------------------------------------|
|------------------------------------------------------------|
|---------------------------|
|---------------------------|GTRS
|---------------------------|I&II
|-6-6-6-6-6-6--8-8-8--------|
|-4-4-4-4-4-4--6-6-6---11\--|
|---------------------------|
  . . . . . .  . . . 
 Play Riff A    1 Time
 Play Riff A.1  1 Time
 Outro
|------------------------------------------|
|------------------------------------------|GTR
|------------------------------------------| I
|------------------------------------------|
|----7-7----9-9----10-10----12-12--2---(2)-|
|-5--5-5-00-7-7-00--8--8-00-10-10--0---(0)-|
| .      ..     ..       ..                |
|                                          |
|------------------------------------------|
|------------------------------------------|GTR
|------------------------------------------| I
|------------------------------------------|
|----7-7----9-9----10-10----12-12--2---(2)-|
|-5--5-5-00-7-7-00--8--8-00-10-10--0---(0)-|
         ..     ..       ..
            
Submit corrections

comments powered by Disqus
↑ Back to top | Arch Enemy Tabs for Losing Faith. Lyrics for acoustic guitar and electric guitar. Tablatures and chords are parodies/interpretations of the original songs. You may use it for private study, scholarship, research or language learning purposes only