>
 >
Bloodstained Cross Intro

Bloodstained Cross Intro Guitar Tabs

Arch Enemy - Bloodstained Cross Intro chords, tabs, tablatures, lyrics

Guitar lessons | Add/correct | Request | Top 50 tabs Artists:  A B C D E F G H I J K L M N O P Q R S T U V W X Y Z 0-9

Bloodstained Cross Intro Guitar Tabs – Arch Enemy

CD, Sheet music, Poster

Do you like Bloodstained Cross Intro? Share with your friends now
Tabs
Arch Enemy
Bloodstained Cross
Khaos Legions


Intro - Interlude (Half of the song)

All guitars tuned to C Standard (2 Steps down)


By Seth Shadows




 Intro
  Q=182
  N.C.
 4/4
  Gtrs I, II
                     PM----------------|                     PM------|
|----------------------------------------|-------------------------------------|
|----------------------------------------|-------------------------------------|
|----------------------------------------|-------------------------------------|
|----------------------------------------|-----------------------------8-(8)\--|
|-/12h13p12S10h12p10-0-0-0-0-0-0-0-0-0-0-|-12h13p12S10h12p10-0-0-0-0-6-6-(6)\--|
|----------------------------------------|---------------------------0-6-(6)\--|


                     PM----------------|
|----------------------------------------|
|----------------------------------------|
|----------------------------------------|
|----------------------------------------|
|-/12h13p12S10h12p10-0-0-0-0-0-0-0-0-0-0-|
|----------------------------------------|


                    PM|                 PM|
|-------------------------------------------|
|-------------------------------------------|
|-------------------------------------------|
|-------------------------------------------|
|-12h13p12S10h12p10-------------------------|
|-------------------6-6-10h11p10S8h10p8-0-0-|


                       PM----------------|
||-----------------------------------------|
||o----------------------------------------|
||-----------------------------------------|
||-----------------------------------------|
||o-/12h13p12S10h12p10-0-0-0-0-0-0-0-0-0-0-|
||-----------------------------------------|


                    PM------|
|-------------------------------------|
|-------------------------------------|
|-------------------------------------|
|-----------------------------8-(8)\--|
|-12h13p12S10h12p10-0-0-0-0-6-6-(6)\--|
|---------------------------0-6-(6)\--|


  1.,2.
                     PM----------------|
|----------------------------------------|
|----------------------------------------|
|----------------------------------------|
|----------------------------------------|
|-/12h13p12S10h12p10-0-0-0-0-0-0-0-0-0-0-|
|----------------------------------------|


                    PM|                 PM|
                                             3x
|--------------------------------------------||
|-------------------------------------------o||
|--------------------------------------------||
|--------------------------------------------||
|-12h13p12S10h12p10-------------------------o||
|-------------------6-6-10h11p10S8h10p8-0-0--||


  3.
  Gtr I
                     PM----------------|
|----------------------------------------|
|----------------------------------------|
|----------------------------------------|
|----------------------------------------|
|-/12h13p12S10h12p10-0-0-0-0-0-0-0-0-0-0-|
|----------------------------------------|
|
| Gtr II
|                    PM----------------|
|----------------------------------------|
|----------------------------------------|
|----------------------------------------|
|----------------------------------------|
|-/12h13p12S10h12p10-0-0-0-0-0-0-0-0-0-0-|
|----------------------------------------|


                     PM|                    PM|
|-----------------------------------------------||
|-----------------------------------------------||
|-----------------------------------------------||
|-----------------------------------------------||
|-12h13p12S10h12p10-----------------------------||
|--------------------6--6-10h11p10S=8h10p=8-7-7-||
|
|                    PM|                    PM|
|-----------------------------------------------||
|-----------------------------------------------||
|-----------------------------------------------||
|-----------------------------------------------||
|-15h17p15S13h15p13-----------------------------||
|-------------------10-10-13h15p13S12h13p12-0-0-||


   Verse I
    Gtrs I, II
    PM----------|      PM----|          PM--------------|
||-------------------|--------------------|-----------------|
||o------------------|--------------------|-----------------|
||-------------------|--------------------|-----------------|
||-------------------|---------/10--------|-----------------|
||o---------------10-|-------------10p7---|---------------9-|
||--0-0-0-0-0-0-7----|-0-0-0-0----------6-|-0-0-0-0-0-0-8---|
|
|   Gtr III
||-------------------|--------------------|-----------------|
||o------------------|--------------------|-----------------|
||-------------------|--------------------|-----------------|
||-------------------|--------------------|-----------------|
||o------------------|--------------------|-----------------|
||-------------------|--------------------|-----------------|


  1.                     2.
                         Gtr I
  PM----|                PM----|
|---------------------||----------------------
|--------------------o||----------------------
|---------------------||----------------------
|---------10----------||---------10-----------
|------------9-------o||------------9---------
|-0-0-0-0------10s12--||-0-0-0-0------10s12---
|
|                        Gtr II
|                        PM----|
|---------------------||----------------------
|--------------------o||----------------------
|---------------------||----------------------
|---------------------||----------7-----------
|--------------------o||------------5---------
|---------------------||-0-0-0-0-------6s=8---


    Gtr I
    PM----------|  ~~~~~~~~~~PM--|          PM--------------| ~~~
||-------------------|------------------------|-----------------|
||o------------------|------------------------|-----------------|
||-------------------|------------------------|-----------------|
||-------------------|-------------/10--------|-----------------|
||o---------------10-|-(10)\-----------10p7---|---------------9-|
||--0-0-0-0-0-0-7----|-------0-0-0----------6-|-0-0-0-0-0-0-8---|
|
|   Gtr II
|   PM----------|  ~~~~~~~~~~PM--|          PM--------------| ~~~
||-------------------|------------------------|-----------------|
||o------------------|------------------------|-----------------|
||-------------------|------------------------|-----------------|
||-------------------|--------------/7--------|-----------------|
||o----------------7-|--(7)\------------7p3---|---------------6-|
||--0-0-0-0-0-0-0----|-------0-0-0----------3-|-0-0-0-0-0-0-5---|


  1.                        2.
 ~~~~~~PM--|                PM----|
|------------------------||----------------------||
|-----------------------o||----------------------||
|------------------------||----------------------||
|------------10----------||---------10-----------||
|-(9)\----------9-------o||------------9---------||
|------0-0-0------10s12--||-0-0-0-0------10s12---||
|
|~~~~~~PM--|                PM----|
|------------------------||----------------------||
|-----------------------o||----------------------||
|------------------------||----------------------||
|-------------7----------||----------------------||
|-(6)\----------5-------o||----------------------||
|------0-0-0-------6s=8--||-0-0-0-0--8p5h=7p=0---||


 Guitar Solo I
  Gtrs I, II
                               PM-------------------------------|
|-----------------------------------------------------------------|
|-----------------------------------------------------------------|
|-----------------------------------------------------------------|
|-----------------------------------------------------------------|
|----/12h====13p12S10h=12p=10--0-----0-0-0---0--0--0-----0---0--0-|
|-----------------------------------------------------------------|
|
| Gtr III
|      ~~~~~~~                 ~~~~~~                        ~~~~~~
|-20s=22b24===========(22)r===22b24========(22)r==22b24====(22)---|
|-----------------------------------------------------------------|
|-----------------------------------------------------------------|
|-----------------------------------------------------------------|
|-----------------------------------------------------------------|
|-----------------------------------------------------------------|


                      PM------|
|---------------------------------------------------|
|---------------------------------------------------|
|---------------------------------------------------|
|---------------------------------8---------(8)\----|
|--12h=13p12S10h12p10-0-0-0-0-6---6---------(6)\----|
|-----------------------------0---6---------(6)\----|
|
|~~~~~~
|-(22)--------------------------(22)r(22)\-/20---20-|
|---------------------------------------------------|
|---------------------------------------------------|
|---------------------------------------------------|
|---------------------------------------------------|
|---------------------------------------------------|


                                        PM-----------------------------------------------|
|---------------------------------------------------------------------------------------------|
|---------------------------------------------------------------------------------------------|
|---------------------------------------------------------------------------------------------|
|---------------------------------------------------------------------------------------------|
|-/12h===13p===12S===10h===12p===10-----0----0-----0----0-----0----0-----0----0-----0----0----|
|---------------------------------------------------------------------------------------------|
|
|--20-20----20-20p19----19-20-20----20-20p19---19-20-20---20-20p17---17-20-20---20-20p17---17-|
|---------------------------------------------------------------------------------------------|
|---------------------------------------------------------------------------------------------|
|---------------------------------------------------------------------------------------------|
|---------------------------------------------------------------------------------------------|
|---------------------------------------------------------------------------------------------|


                                       PM---|                                       PM---|
|---------------------------------------------------------------------------------------------|
|---------------------------------------------------------------------------------------------|
|---------------------------------------------------------------------------------------------|
|---------------------------------------------------------------------------------------------|
|-12h===13p===12S===10h===12p===10------------------------------------------------------------|
|--------------------------------------6----6----10h===11p===10S===8h===10p===8-----0----0----|
|
|-20-20----20-20p15----15-20-20----20-20p15---15-20-20----20-20p17---17-20-20---20-20p17---17-|
|---------------------------------------------------------------------------------------------|
|---------------------------------------------------------------------------------------------|
|---------------------------------------------------------------------------------------------|
|---------------------------------------------------------------------------------------------|
|---------------------------------------------------------------------------------------------|


                           PM-----------------------------|
|-----------------------------------------------------------|
|-----------------------------------------------------------|
|-----------------------------------------------------------|
|-----------------------------------------------------------|
|-/12h===13p=12S=10h12p10--0----0---0--0-0-0--0----0---0--0-|
|-----------------------------------------------------------|
|
|             ~~~~                  ~~~~
|--17-------(17)----------17------(17)-------17------(17)p==|
|--20b22----(20)----------20b22---(20)-------20b22---(20)p==|
|-----------------------------------------------------------|
|-----------------------------------------------------------|
|-----------------------------------------------------------|
|-----------------------------------------------------------|


                             PM---------------|
|--------------------------------------------------------------|
|--------------------------------------------------------------|
|--------------------------------------------------------------|
|------------------------------------------------------8--(8)\-|
|-12h13p====12S=10h=12p=10---0----0----0---0---6-------6--(6)\-|
|----------------------------------------------0-------6--(6)\-|
|
|            /2\ \1/ \1/     \2/  \2___________________/
|  PM-----|
|--0-----------------------------------------------------------|
|--0----7-x-<7>-(7)-(7)-(7)-(7)--(7)--(7)-(7)-(7)-(7)-(7)-(7)--|
|-------x---<7>-(7)-(7)-(7)-(7)--(7)--(7)-(7)-(7)-(7)-(7)-(7)--|
|-----x--------------------------------------------------------|
|--------------------------------------------------------------|
|--------------------------------------------------------------|


                              PM---------------------------------|
|------------------------------------------------------------------|
|------------------------------------------------------------------|
|------------------------------------------------------------------|
|------------------------------------------------------------------|
|-/12h13p===12S===10h12p10----0----0--0-0----0----0--0-0----0----0-|
|------------------------------------------------------------------|
|
|   PM                      PM                  PM
|--------------14s===17--------------15s==19-------------17s==20---|
|------------------------------------------------------------------|
|--12----15----------------14---17-------------15---19-------------|
|------------------------------------------------------------------|
|------------------------------------------------------------------|
|------------------------------------------------------------------|


                                   PM---|                       PM|
|-------------------------------------------------------------------||
|-------------------------------------------------------------------||
|-------------------------------------------------------------------||
|-------------------------------------------------------------------||
|-12h13p===12S===10h===12p===10-------------------------------------||
|----------------------------------6----6-10h===11p10S==8h=10p8-0-0-||
|
|  PM                PM---|
|-------15S===17----------------17s==20S==22b24-------(22)----------||
|-------------------------17----------------------------------------||
|-15----------------15----------------------------------------------||
|-------------------------------------------------------------------||
|-------------------------------------------------------------------||
|-------------------------------------------------------------------||


   Verse II
    Gtr I
    PM----------|  ~~~~~~~~~~PM--|          PM-
||-------------------|------------------------|
||o------------------|------------------------|
||-------------------|------------------------|
||-------------------|-------------/10--------|
||o---------------10-|-(10)\-----------10p7---|
||--0-0-0-0-0-0-7----|-------0-0-0----------6-|
|
|   Gtr II
|   PM----------|  ~~~~~~~~~~PM--|          PM-
||-------------------|------------------------|
||o------------------|------------------------|
||-------------------|------------------------|
||-------------------|--------------/7--------|
||o----------------7-|--(7)\------------7p3---|
||--0-0-0-0-0-0-0----|-------0-0-0----------3-|


                    1.                        2.
 -------------| ~~~~~~~~~PM--|                PM----|
|-----------------|------------------------||---------------||
|-----------------|-----------------------o||---------------||
|-----------------|------------------------||---------------||
|-----------------|------------10----------||---------9\----||
|---------------9-|-(9)\----------9-------o||---------7\----||
|-0-0-0-0-0-0-8---|------0-0-0------10s12--||-0-0-0-0-------||
|
|-------------| ~~~~~~~~~PM--|                PM----|
|-----------------|------------------------||---------------||
|-----------------|-----------------------o||---------------||
|-----------------|------------------------||---------------||
|-----------------|-------------7----------||---------9\----||
|---------------6-|-(6)\----------5-------o||---------7\----||
|-0-0-0-0-0-0-5---|------0-0-0-------6s=8--||-0-0-0-0-------||


 Pre-Chorus
  $
  Gtrs I, II
|-----------|-------------|-------------|---------|
|-----------|-------------|-------------|---------|
|-----------|-------------|-------------|---------|
|--9--------|---9---------|---9---------|--(9)----|
|--7--------|---7---------|---7---------|--(7)----|
|--0--------|---0---------|---0---------|--(0)----|
|
| Gtr III
|  TP           TP            TP            TP
|-----------|-------------|-------------|---------|
|-17--------|-(17)--------|-(17)--------|-(17)----|
|-----------|-------------|-------------|---------|
|-----------|-------------|-------------|---------|
|-----------|-------------|-------------|---------|
|-----------|-------------|-------------|---------|


|-----------|-----------|-----------|---------|
|-----------|-----------|-----------|---------|
|--5--------|--9--------|--8--------|--(8)----|
|--5--------|--x--------|--x--------|---------|
|--3--------|--7--------|--6--------|--(6)----|
|--0--------|-----------|-----------|---------|
|
|  TP          TP          TP           TP
|-----------|-----------|-----------|---------|
|-13--------|-17--------|-16--------|-(16)----|
|-----------|-----------|-----------|---------|
|-----------|-----------|-----------|---------|
|-----------|-----------|-----------|---------|
|-----------|-----------|-----------|---------|


|-----------|-------------|-------------|---------|
|-----------|-------------|-------------|---------|
|-----------|-------------|-------------|---------|
|--9--------|---9---------|---9---------|--(9)----|
|--7--------|---7---------|---7---------|--(7)----|
|--0--------|---0---------|---0---------|--(0)----|
|
|  TP           TP            TP            TP
|-----------|-------------|-------------|---------|
|-20--------|-(20)--------|-(20)--------|-(20)----|
|-----------|-------------|-------------|---------|
|-----------|-------------|-------------|---------|
|-----------|-------------|-------------|---------|
|-----------|-------------|-------------|---------|
|
| Gtr IV
|  TP           TP            TP            TP
|-----------|-------------|-------------|---------|
|-17--------|-(17)--------|-(17)--------|-(17)----|
|-----------|-------------|-------------|---------|
|-----------|-------------|-------------|---------|
|-----------|-------------|-------------|---------|
|-----------|-------------|-------------|---------|


|-----------|-----------|-----------|---------||
|-----------|-----------|-----------|---------||
|--5--------|--9--------|--8--------|--(8)----||
|--5--------|--x--------|--x--------|---------||
|--3--------|--7--------|--6--------|--(6)----||
|--0--------|-----------|-----------|---------||
|
|  TP          TP          TP           TP
|-----------|-----------|-----------|---------||
|-13--------|-17--------|-16--------|-(16)----||
|-----------|-----------|-----------|---------||
|-----------|-----------|-----------|---------||
|-----------|-----------|-----------|---------||
|-----------|-----------|-----------|---------||
|
|  TP          TP          TP           TP
|-----------|-----------|-----------|---------||
|-17--------|-20--------|-19--------|-(19)----||
|-----------|-----------|-----------|---------||
|-----------|-----------|-----------|---------||
|-----------|-----------|-----------|---------||
|-----------|-----------|-----------|---------||


   Chorus
    Gtrs I, II
||------------------|-----------------|---------------|-----------------|
||o-----------------|-----------------|--8--8---8--8--|--8--8---8---8---|
||------------------|-----------------|--x--x---x--x--|--x--x---x---x---|
||---5---5---5---5--|--5---5---5---5--|--8--8---8--8--|--8--8---8---8---|
||o--5---5---5---5--|--5---5---5---5--|--6--6---6--6--|--6--6---6---6---|
||---3---3---3---3--|--3---3---3---3--|---------------|-----------------|
|
|   Gtr III
||------------------|-----------------|---------------|-----------------|
||o-11------11------|-11------11--13--|-11-----11-----|-11-----11--13---|
||------12------12--|-----12----------|-----8------8--|-----8-----------|
||------------------|-----------------|---------------|-----------------|
||o-----------------|-----------------|---------------|-----------------|
||------------------|-----------------|---------------|-----------------|


                                                                To Coda
|-----------------|-----------------|-------------------|------------------||
|-----------------|-----------------|-------------------|-----------------o||
|-10--10--10--10--|-10--10--10--10--|-------------------|--7----7---7--7---||
|--8---8---8---8--|--8---8---8---8--|--4----4---4----4--|--4----4---4--4---||
|--8---8---8---8--|--8---8---8---8--|--5----5---5----5--|--5----5---5--5--o||
|--6---6---6---6--|--6---6---6---6--|--2----2---2----2--|------------------||
|
|-----------------|-----------------|-------------------|------------------||
|-11------11------|-11------11--13--|-------------------|-----------------o||
|-----10------10--|-----10----------|-15--\14--14--\12--|-12--\11--11------||
|-----------------|-----------------|-------------------|------------------||
|-----------------|-----------------|-------------------|-----------------o||
|-----------------|-----------------|-------------------|------------------||


 Re-Intro
  Gtr I
                     PM----------------|                     PM------|
|----------------------------------------|------------------------------------|
|----------------------------------------|------------------------------------|
|----------------------------------------|------------------------------------|
|----------------------------------------|-----------------------------8-(8)\-|
|-/12h13p12S10h12p10-0-0-0-0-0-0-0-0-0-0-|-12h13p12S10h12p10-0-0-0-0-6-6-(6)\-|
|----------------------------------------|---------------------------0-6-(6)\-|
|
| Gtr II
|   PM                                                               PM
|----------------------------------------|------------------------------------|
|----------------------------------------|------------------------------------|
|----------------------------------------|------------------------------------|
|----------------------------------------|-----------------------------8-(8)\-|
|---2------------------------------------|---------------------------6-6-(6)\-|
|---0------------------------------------|---------------------------0-6-(6)\-|


  Gtrs I, II
                     PM----------------|
|----------------------------------------|
|----------------------------------------|
|----------------------------------------|
|----------------------------------------|
|-/12h13p12S10h12p10-0-0-0-0-0-0-0-0-0-0-|
|----------------------------------------|


                    PM|                 PM|
|-------------------------------------------|
|-------------------------------------------|
|-------------------------------------------|
|-------------------------------------------|
|-12h13p12S10h12p10-------------------------|
|-------------------6-6-10h11p10S8h10p8-0-0-|


                     PM----------------|                     PM------|
|----------------------------------------|------------------------------------|
|----------------------------------------|------------------------------------|
|----------------------------------------|------------------------------------|
|----------------------------------------|-----------------------------8-(8)\-|
|-/12h13p12S10h12p10-0-0-0-0-0-0-0-0-0-0-|-12h13p12S10h12p10-0-0-0-0-6-6-(6)\-|
|----------------------------------------|---------------------------0-6-(6)\-|


                     PM----------------|
|----------------------------------------|
|----------------------------------------|
|----------------------------------------|
|----------------------------------------|
|-/12h13p12S10h12p10-0-0-0-0-0-0-0-0-0-0-|
|----------------------------------------|


                    PM|                 PM|
|-------------------------------------------||
|-------------------------------------------||
|-------------------------------------------||
|-------------------------------------------||
|-12h13p12S10h12p10-------------------------||
|-------------------6-6-10h11p10S8h10p8-0-0-||


  Gtrs I, II
  PM----------------------------------------------------------|
|--------------------------------:---------------------------------:
|--------------------------------:---------------------------------:
|--------------------------------:---------------------------------:
|--------------------------------:---------------------------------:
|-2-2-2-2----2-2-2-2-----2-2-2-2-:-----2-2-2-2-----2-2---2--2------:
|-0-0-0-0----0-0-0-0-----0-0-0-0-:-----0-0-0-0-----0-0---0--0------:
|
| Gtr III
|          ~~~~~~~~~~~~~~~~~~~~~~~~~~~~~~~~~~~~~~~~            ~~
|--------------------------------:---------------------------------:
|--------------------------------:---------------------------------:
|---------/9---------/11---------:-/12---------/14-----(14)s==17---:
|--------------------------------:---------------------------------:
|--------------------------------:---------------------------------:
|--------------------------------:---------------------------------:
|
| Gtr IV
|          ~~~~~~~~~~~~~~~~~~~~~~~~~~~~~~~~~~~~~~~~            ~~
|--------------------------------:---------------------------------:
|--------------------------------:---------------------------------:
|---------/5----------/8---------:--/9---------/11-----(11)s==14---:
|--------------------------------:---------------------------------:
|--------------------------------:---------------------------------:
|--------------------------------:---------------------------------:


   Verse III
    Gtrs I, II
    PM----------|      PM----|          PM--------------|
||-------------------|--------------------|-----------------|
||o------------------|--------------------|-----------------|
||-------------------|--------------------|-----------------|
||-------------------|---------/10--------|-----------------|
||o---------------10-|-------------10p7---|---------------9-|
||--0-0-0-0-0-0-7----|-0-0-0-0----------6-|-0-0-0-0-0-0-8---|
|
|   Gtr III
||-------------------|--------------------|-----------------|
||o------------------|--------------------|-----------------|
||-------------------|--------------------|-----------------|
||-------------------|--------------------|-----------------|
||o------------------|--------------------|-----------------|
||-------------------|--------------------|-----------------|


  1.                     2.
                         Gtr I
  PM----|                PM----|
|---------------------||----------------------
|--------------------o||----------------------
|---------------------||----------------------
|---------10----------||---------10-----------
|------------9-------o||------------9---------
|-0-0-0-0------10s12--||-0-0-0-0------10s12---
|
|                        Gtr II
|                        PM----|
|---------------------||----------------------
|--------------------o||----------------------
|---------------------||----------------------
|---------------------||----------7-----------
|--------------------o||------------5---------
|---------------------||-0-0-0-0-------6s=8---


    Gtr I
    PM----------|  ~~~~~~~~~~PM--|          PM--------------| ~~~
||-------------------|------------------------|-----------------|
||o------------------|------------------------|-----------------|
||-------------------|------------------------|-----------------|
||-------------------|-------------/10--------|-----------------|
||o---------------10-|-(10)\-----------10p7---|---------------9-|
||--0-0-0-0-0-0-7----|-------0-0-0----------6-|-0-0-0-0-0-0-8---|
|
|   Gtr II
|   PM----------|  ~~~~~~~~~~PM--|          PM--------------| ~~~
||-------------------|------------------------|-----------------|
||o------------------|------------------------|-----------------|
||-------------------|------------------------|-----------------|
||-------------------|--------------/7--------|-----------------|
||o----------------7-|--(7)\------------7p3---|---------------6-|
||--0-0-0-0-0-0-0----|-------0-0-0----------3-|-0-0-0-0-0-0-5---|


  1.                        2.
                              D.S. al Coda
 ~~~~~~PM--|                PM------------|
|------------------------||-------------------||
|-----------------------o||-------------------||
|------------------------||-------------------||
|------------10----------||-------------------||
|-(9)\----------9-------o||-------------------||
|------0-0-0------10s12--||-0-0-0-0-0-0-0-0---||
|
|~~~~~~PM--|                PM------------|
|------------------------||-------------------||
|-----------------------o||-------------------||
|------------------------||-------------------||
|-------------7----------||-------------------||
|-(6)\----------5-------o||-------------------||
|------0-0-0-------6s=8--||-0-0-0-0-4-3-2-1---||


 Interlude
  &
  Gtrs I, II
                      >
|------------------|-----------------|-----------------|----------------|
|------------------|-----------------|-----------------|----------------|
|------------------|-----------------|-----------------|----------------|
|---2--------------|-(2)-------------|-----------------|----------------|
|---2--------------|-(2)-------------|-----------------|----------------|
|---0--------------|-(0)-------------|-----------------|----------------|
|
| Gtr V
|------------------|-----------------|-----------------|----------------|
|---------------3--|----------2------|--------------2--|-------------2--|
|-------4-------4--|-------3------3--|----------2------|---------2------|
|---0-------5------|--4--------------|--4---4----------|-----4----------|
|---2--------------|--4--------------|--2--------------|--4-------------|
|------------------|--2--------------|-----------------|--5-------------|
|
| Gtr III
|-/14p=10----------|----------9h=12p=|=10--------------|----------------|
|----------12------|------11---------|-----12----------|-----9h=10h=12--|
|--------------12p=|=11--------------|---------12S=11p=|=10-------------|
|------------------|-----------------|-----------------|----------------|
|------------------|-----------------|-----------------|----------------|
|------------------|-----------------|-----------------|----------------|


  Gtr V
|------------------|---------------0--|-----------2--|----------2--|
|------------------|----------2-------|-----3--------|----2--------|
|------------------|--2--4------------|--------2-----|-------1-----|
|---------4---5----|------------------|--0-----------|-2-----------|
|---0--2-----------|--0-------2----4--|--2-----------|-2-----------|
|------0-----------|------------------|--------------|-------------|
|
| Gtr III
|   ~~~               ~~
|------------------|------------------|-/9p=5--------|-------4h=7--|
|-/15--------14p12h|=14-----(14)\-----|--------7-----|----6--------|
|------------------|------------------|-----------7p=|=6-----------|
|------------------|------------------|--------------|-------------|
|------------------|------------------|--------------|-------------|
|------------------|------------------|--------------|-------------|





Comments


Popular Arch Enemy tabs & chords
Nemesis Bass Tabs
Angelclaw 1 Tabs
Bury Me An Angel 2 Tabs
Demoniality Tabs
Intermezzo Liberte Intro Tabs
Machtkampf Tabs
Marching On A Dead End Road 2 Tabs
Ravenous 4 Tabs
Savage Messiah Tabs
Skeleton Dance 1 Tabs


Song lyrics



↑ Back to top | Tablatures and chords are parodies/interpretations of the original songs. You may use it for private study, scholarship, research or language learning purposes only
© 2014 AZChords.com Contact us | Privacy policy | DMCA | Add/correct tabs | Request tabs | Top 50 tabs