>
 >
Caught In A Mosh

Caught In A Mosh Guitar Tabs

Anthrax - Caught In A Mosh chords, tabs, tablatures, lyrics

Guitar lessons | Add/correct | Request | Top 50 tabs Artists:  A B C D E F G H I J K L M N O P Q R S T U V W X Y Z 0-9

Caught In A Mosh Guitar Tabs – Anthrax

CD, Sheet music, Poster

Do you like Caught In A Mosh? Share with your friends now
Bass TabsBass Tabs v2Bass Tabs v3TabsTabs v2Tabs v3
ANTHRAX - CAUGHT IN A MOSH
(Among The Living, 1987)

Key
= after note = vibrato
^ after note = heavy vibrato 
\ = slide down
/ = slide up
+ = tap
h = hammer
p = pull
n = natural harmonic
s = pinching harmonic (squeal)
* = tremolo pick
t = trill
b = bend
|-3-| = triplet

n number above the tab = play the first part then the first finishing part
			 play the first part a second time and then play the second finishing part
			 etc.

Intro

				    1		2
E --------------------------------- ----------- ------
B --------------------------------- ----------- ------
G -7----------7---------7---------- ----------- ------
D -7----------7---------7---------- -7--------- -2----
A -5----------5---------5---------- -7--------- -2----
E --------00---------00--------00-- -5------00- -0----

Riff 1

E -----------------------------------------------------------------
B -----------------------------------------------------------------
G -----------------------------------------------------------------
D -----------------------------------------------------------------
A -----------------------------------------------------------------
E -0--0-0-1-0-0-3-0-0-4-0-5-0-6-7-8-0--0-1-0-0-3-0-0-4-0-5-0-8-7-6-

Riff 2

E -------------------------------------------------------------------
B -------------------------------------------------------------------
G -9-9-9-9-9-9-9-9-9-9-9-9-9-9-9----------10-9-----8-9-------------9-
D -9-9-9-9-9-9-9-9-9-9-9-9-9-9-9-9-10-----10-9-----8-9-------------9-
A -7-7-7-7-7-7-7-7-7-7-7-7-7-7-7-9-10-----8 -7-----6-7-------------7-
E -------------------------------7-8 -0-0------0-0-----0-0-0-0-0-0---

Riff 2A

E -------------------------------------------------------------------
B -------------------------------------------------------------------
G -9-9-9-9-9-9-9-9-9-9-9-9-9-9-9----------10-9-----8-9---------------
D -9-9-9-9-9-9-9-9-9-9-9-9-9-9-9-9-10-----10-9-----8-9-----------5---
A -7-7-7-7-7-7-7-7-7-7-7-7-7-7-7-9-10-----8 -7-----6-7-----------5---
E -------------------------------7-8 -0-0------0-0-----0-0-0-0-0-3---

Riff 3

E ---------------------------------------------------------
B ---------------------------------------------------------
G ---------------------------------------------------------
D -4----------------------5----4----------------------5----
A -4----------------------5----4----------------------5----
E -2--0-2-0-2-0-2-0-2-0-2-3----2--0-2-0-2-0-2-0-2-0-2-3----

Riff 4

E ----------------------------------
B ----------------------------------
G -7-----------------------5--------
D -7--------------3--------5--------
A -5--------------3--------3--------
E ----------------1-----------------

Riff 5A

E -------------------
B -------------------
G -------------------
D -2--------2--------
A -2--------2--------
E -0--------0--------

Riff 5

E --------------------------------------------------
B --------------------------------------------------
G --------9--5--------------------------------------
D -2------9--5---------4--------------5-5---7----9--
A -2------7--3---------4--------------5-5---7----9--
E -0-----------------0-2--2-2-2-2-2-0-3-3-0-5--0-7--

Riff 5B

E ---------------------------------------------------------------
B ---------------------------------------------------------------
G -9-9-9-9-9-9-9-9-9-9-9-9-9-9-9-9-9-9-9-9-9-9-9-9-9-9-9-9-9-9-9-
D -9-9-9-9-9-9-9-9-9-9-9-9-9-9-9-9-9-9-9-9-9-9-9-9-9-9-9-9-9-9-9-
A -7-7-7-7-7-7-7-7-7-7-7-7-7-7-7-7-7-7-7-7-7-7-7-7-7-7-7-7-7-7-7-
E ---------------------------------------------------------------

Riff 6

E ---------------------------------------------------------------
B ---------------------------------------------------------------
G ------------------------------------------------------------4--
D -----5-----5-----5-----5-----4------5-----5-----5-----5-----4--
A -----5-----5-----5-----5-----4------5-----5-----5-----5-----2--
E -0-0-3-0-0-3-0-0-3-0-0-3-0-0-2--0-0-3-0-0-3-0-0-3-0-0-3-0-0----

Riff 7

E -----------------------------------------------------------------------
B -----------------------------------------------------------------------
G ------------------5----------------------------------------------------
D -2----------------5----------------4----------------5--------7----9----
A -2----------------3----------------4----------------5--------7----9----
E -0---------------------------------2----------------3--------5----7----

Riff 8

E --------------------------------
B --------------------------------
G -----------2-4-5------9-9-9-9-5-
D -2---5--2--2-4-5------9-9-9-9-5-
A -2---5--2--0-2-3------7-7-7-7-3-
E -0---3--0-----------------------

Order

Intro x 1
Riff 1 x 3
Riff 2 x 3
Riff 2A x 1
Riff 3 x 2
Riff 4 x 1
Riff 1 x 1
Riff 4 x 1
Riff 1 x 2
Riff 2 x 3
Riff 2A x 1
Riff 3 x 2
Riff 4 x 1
Riff 1 x 1
Riff 4 x 1
Riff 1 x 2
Riff 5A x 2
Riff 5 x 4
Riff 5B x 1
Riff 3 x 2
Solo over Riff 3 x 2
Solo over Riff 6 x 2
Solo over Riff 7 x 2
Riff 1 x 4
Riff 2 x 3
Riff 2A x 1
Riff 3 x 2
Riff 4 x 1
Riff 1 x 1
Riff 4 x 1
Riff 1 x 2
Riff 8 x 1





Comments


Popular Anthrax tabs & chords
Burst 2 Bass Tabs
Inside Out Bass Tabs
Madhouse Bass Tabs
Parasite Bass Tabs
Anywhere But Here Tabs
Bring The Noise Tabs
Pieces Tabs
Skeletons In The Closet 1 Tabs
Starting Up A Posse Tabs
Subjugator Tabs


Song lyrics



↑ Back to top | Tablatures and chords are parodies/interpretations of the original songs. You may use it for private study, scholarship, research or language learning purposes only
© 2014 AZChords.com Contact us | Privacy policy | DMCA | Add/correct tabs | Request tabs | Top 50 tabs