» » »

Got The Time Tabs (ver.1)

Artists:  A B C D E F G H I J K L M N O P Q R S T U V W X Y Z # 

Got The Time Tabs (ver.1)

Anthrax
Rating:
0/5 (0 votes)

Hard to play? Try these video lessons and learn fast.
                Tuning: Standard

. = Palm Mute

Intro/Chorus (First bar only after bass intro):

e----------|--------------------------------------|
b----------|--------------------------------------|
g----------|--------------------------------------|
d----------|-----------6-6-6-6--8-8-8-8-----------|
a--8\--8\--|--8-8-8-8--4-4-4-4--6-6-6-6--6-6-6-6--|
E--6\--6\--|--6-6-6-6--------------------4-4-4-4--|  x3
		       . . . .
 then....
e-------------------|
b-------------------|
g-------------------|
d-------------------|
a--6-6-6-6--6-6--8--|
E--4-4-4-4--4-4--6--| x1

Verse:
e--------------------------------------|
b--------------------------------------|
g--------------------------------------|
d--------------------------------------|
a--8-8-8-8-8-8-8-8-8-8-8-8-8-8-8-8--6--|
E--6-6-6-6-6-6-6-6-6-6-6-6-6-6-6-6--4--|  x2
   . . . . . . . . . . . . . . . . 
Pre Chorus:
e---------------------------------|
b---------------------------------|
g---------------------------------|
d-----------------------6-6-6--8--|
a--8--6---4-4-4--3-3-3--4-4-4--6--|
E--6--4---2-2-2--1-1-1------------|
   .  .
 then repeat chorus 2x, and on 2nd time play the riff below with chorus entirely palm muted
e---------------9-9-9-9--11-11-11-11-----------|
b--11-11-11-11--x-x-x-x---x--x--x--x--9-9-9-9--|
g---x--x--x--x--6-6-6-6---8--8--8--8--x-x-x-x--|
d---8--8--8--8------------------------6-6-6-6--|
a----------------------------------------------|
E----------------------------------------------|
 then bass solo, when the guitars kick in again, play the below chord when needed
e-----|
b-----|
g-----|
d-----|
a--8--|
E--6--|
 follow up the bass solo with pre chorus, then chorus.

And there ya go, the only tab for Got The Time by Anthrax.
            
Hard to play? Try these video lessons and learn fast. | Correct




comments powered by Disqus
↑ Back to top | Tablatures and chords are parodies/interpretations of the original songs. You may use it for private study, scholarship, research or language learning purposes only