» » »

Andy Timmons, Electric Gypsy Tabs (ver.1)

Artists:  A B C D E F G H I J K L M N O P Q R S T U V W X Y Z # 

Electric Gypsy Tabs (ver.1)

Andy Timmons Tabs
Rating:
0/5 (0 votes)
Electric Gypsy lessons Tabs too difficult? Try these video lessons and learn fast
                
ELECTRIC GYPSY
As recorded by Andy Timmons
(From the 2002 Album THAT WAS THEN, THIS IS NOW)

        

Music by Andy Timmons
Arranged by Andy Timmons

Gtr I (Eb Ab Db Gb Bb Eb) - 'Untitled'

 Intro
  Q=95
  (D)                          (A)
 4/4
  Gtr I
                                                                PM
                                           |--3--|
  E S S  S   S  S  S   E  E  E   E    +E   S  S  S E E +E  S S  S  S S S
|----------------------------------|-------------------------------------|
|----------------------------------|-------------------------------------|
|---7-7--9s=11-11-11-/11--9--7-----|-----------------------------------6-|
|-0-----(0)------------0-(0)-0-/11-|-(11)-11s12s11-9-7-(7)-7h9-----7h9---|
|--------------------------------0-|--(0)--0-------0-0-(0)-----(9)-------|
|----------------------------------|-------------------------------------|


  (Bm)                               (G)
      PM|                        ~~~~~~~~~
                          |-3-|
  S S S S  a  Q   a  E  E S S S  E    +E  S  S S S S S a  e  E S  T  T  S S
|----------------------------------|----------------------------------------|
|---------(7)(7)--7-(7)-7----------|-------------------8s10-\8-8-(8)(8)-----|
|-6s7------7h=9---7h=9--7----------|---------------7---7s=9-\7-7h=9p=7------|
|----------7-(7)----------7h9p7----|-----------7h9---9------------------9-7-|
|-----0-------------------------10-|-(10)-7h10------------------------------|
|-------7--------------------------|----------------------------------------|


  (D)                          (A)
                                                                PM
                                           |--3--|
   S S  E   S S S  S    E  E E   E    +E   S  S  S E E +E  S S  S  S S S
|----------------------------------|-------------------------------------|
|----------------------------------|-------------------------------------|
|------(7)----7-9s11--/11-\9-7-----|-----------------------------------6-|
|------(7)-/9---0-(0)---0--0-0-/11-|-(11)-11s12s11-9-7-(7)-7h9-----7h9---|
|-\7-5--5------------------------0-|--(0)--0---------0-(0)-----(x)-------|
|----------------------------------|-------------------------------------|


  (Bm)                             (G)
      PM|                           ~~~
                             |-3-|
  S S S S  a  E.  S  a  E  E S S S  E
|-------------------------------------|
|---------(7)(7)--7--7-(7)-7----------|
|-6s7------7h=9---9--7h=9--7----------|
|----------7-(7)-(7)---------7h9p7----|
|-----x----------------------------10-|
|-------7-----------------------------|


 ~~~~~~~
                                |--3--|
   +S   S  S  S S S S S a  e  E S  S  S  S S
|--------------------------------------------|
|-----------------------8s10-\8-8-(8)(8)-----|
|-------------------7---7s=9-\7-7h=9p=7------|
|---------------7h9---9------------------9-7-|
|-(10)p(0)-7h10------------------------------|
|--------------------------------------------|


 Band enters
  (D)                          (A)
                                              |--3--|
   S S  E   S S S  S    E  E E   E    +S   S  S  S  S E E +E  S S  S  S S S
|----------------------------------|----------------------------------------|
|----------------------------------|----------------------------------------|
|------(7)-/9-7-9s11--/11-\9-7-----|--------------------------------------6-|
|------(7)------0-(0)---0--0-0-/11-|-(11)-11-11s12s11-9-7-(7)-7h9-----7h9---|
|-\7-5--5------------------------0-|--(0)--0--0---------0-(0)-----(9)-------|
|----------------------------------|----------------------------------------|


  (Bm)                              (G)
      PM|                            ~~
                              |-3-|
  S S S S a E  S   S  a  E  E S S S  E
|--------------------------------------|
|-------------(7)-(7)-7-(7)-7----------|
|-6s7-----7h9--9---9--7h=9--7----------|
|-----------------------------7h9p7----|
|-----0-----------------------------10-|
|-------7------------------------------|


               |-3--| |--3---|  |-3-| |-3-| |-3-|  |--3--|
   S  S   E    S S  S S S a  S  S S S S S S S S S  S  S  S
|--------------7-------------------------------------------|
|--------10b12---7h10---7----------------------------------|
|---------------------9---9s10p\9p7---9p7-------7-(7)(7)---|
|-----------------------------------9-----9p7------7h=9----|
|-10p(0)--------------------------------------9----------9-|
|----------------------------------------------------------|


     (D)                       (A)
         ~
   |-3-|                                        |--3--|
   S S S E  S S S  S    E  E E   E    +S    S   S  S  S E E +S  S S S S S S S
|----------------------------------|------------------------------------------|
|----------------------------------|------------------------------------------|
|-------------7-9s11--/11-\9-7-----|----------------------------------------6-|
|----------/9---0-(0)---0--0-0-/11-|-(11)-(11)-11s12s11-9-7-(7)-7-7h9---7h9---|
|-\7p5---5-----------------------0-|--(0)--(0)--0---------0-(0)-------9-------|
|------7---------------------------|------------------------------------------|


  (Bm)                             (G)
      PM|                           ~~~~~~~~~     T     T
                             |-3-|
  S S S S  a  E. S  a   E  E S S S  E    +H     E E     Q
|-------------------------------------|--------------------------|
|---------(7)(7)-7--7--(7)-7----------|--------------------------|
|-6s7------7h=9--9--7h==9--7----------|-----------------7(19)b9--|
|-------------------x--------7h9p7----|-----------7(19)----------|
|-----x------------(0)-(0)---------10-|-(10)---------------------|
|-------7-----------------------------|--------------------------|


 Verse 1
  (D)                                  (A)
  T       T         T      ~~~ T        ~~~~~~~~~   T       T     T     T
  E.      S     +e  E     +Q   E       +E    +H     S     S E     E     E
|------------------------------------------|----------------------------------|
|------------------------------------------|----------------------------------|
|-7(19)b9-7(19)-(7)------------6(18)b7r(6)-|-(6)------------------------------|
|-------------------7(19)-(7)--------------|----------------7(19)-7(19)-9(21)-|
|------------------------------------------|--------7(19)s9-------------------|
|------------------------------------------|----------------------------------|


  (Bm)                                 (G)
   T     T     ~~~~~   T       T        ~~~~~~~~~~~~   T     T         ~~~~~
   E     E     Q.      S     S S     S  E       +H     E.    S     +E  E
|---------------------------------------------|------------------------------|
|---------------------------------------------|------------------------------|
|---------------------------------------------|------------------------------|
|---------------------------------------------|------------------------------|
|-\7(19)-5(17)-5(17)-----------5(17)h7--------|--------------5(17)-(5)-------|
|----------------------5(17)h7---------/7(19)-|-(7)----5(17)-----------2(14)-|


  (D)                          (A)
   ~~~   T       T     T       ~~~~~~~~~~~~   T       T     T       T
  +H     S     S E     a     E E       +H     S     S E     S     S E
|------------------------------------|------------------------------------|
|------------------------------------|------------------------------------|
|------------------------------------|------------------------------7(19)-|
|------------------------------------|----------------7(19)-7(19)s9-------|
|----------------5(17)-7(19)s9-------|--------7(19)s9---------------------|
|-(2)----5(17)s7---------------9(21)-|-(9)--------------------------------|


  (Bm)                                         (G)
  T                        T     T       T      T        ~~~       T
                                 |---3---|
  Q         +Q      +E     E     S     S S      E       +H.      E S     S
|-----------------------------------------------------|--------------------|
|-----------------------------------------------------|------------7(19)s8-|
|-9(21)b11--(9)b12--(9)b11r7(19)---------7(19)--------|--------------------|
|--------------------------------7(19)s9-------/9(21)-|-(9)----------------|
|-----------------------------------------------------|--------------------|
|-----------------------------------------------------|--------------------|


  (D)                                  (A)
  T           T        T     T         ~~~~~~~~~~~~     T     T
                             |---3---|
  H           E        E     S     S S E       +H     E E     Q
|--------------------------------------------|--------------------------|
|-8(20)b10----8(20)b10-8(20)-7(19)s8s7-------|----------------8(20)b10--|
|--------------------------------------9(21)-|-(9)------7(19)-----------|
|--------------------------------------------|--------------------------|
|--------------------------------------------|--------------------------|
|--------------------------------------------|--------------------------|


  (Bm)                               G
  T         T      T      T          ~~~~~~~
  Q         Q      E.     S      +E  E
|------------------------------------------|
|-8(20)b10--8(20)--7(19)-10(22)-(10)-------|
|------------------------------------7(19)-|
|------------------------------------------|
|------------------------------------------|
|------------------------------------------|


 ~~~~~   T       T     T       T
  +H     S     S E     a     E a     E
|--------------------------------------|
|--------------------------------------|
|-(7)------------7(19)-----------------|
|--------7(19)s9-------7(19)s9-7(19)s9-|
|--------------------------------------|
|--------------------------------------|


  (D)                                   (A)
  ~~~~~   T       T     T       T       ~~~~~~~
  Q.      S     S E     a     E a     E E
|---------------------------------------------|
|---------------------------------------------|
|---------------------------------------------|
|-7(19)-----------7(19)-----------------------|
|---------7(19)s9-------7(19)s9-7(19)s9-7(19)-|
|---------------------------------------------|


 ~~~~~       T     T     T     T     T
          |---3----|     |-----3-----|
  +H     +E  E     E     E     E     E
|------------------------------------------|
|------------------------------------------|
|------------------------------6(18)-7(19)-|
|------------9(21)-8(20)-9(21)-------------|
|-(7)----(7)-------------------------------|
|------------------------------------------|


  (Bm)                           (G)
  T          T       T     T     ~~~~~~~~~~~~
  E.       S Q.      E     E     E       +H     S S S S S S +E
|--------------------------------------|-------------------------|
|--------------------8(20)-7(19)-------|--------x-x-x-x-x--------|
|-9(21)b11r7---------------------7(19)-|-(7)----x-x-x-x-x--------|
|------------9(21)---------------------|--------x-x-x-x-x-x-(x)\-|
|--------------------------------------|------------------x-(x)\-|
|--------------------------------------|------------------x-(x)\-|


 Bridge
  N.C.    E5   D/DsusN.C.
          ~~                                            ~
                                               |--3--|
  S S S S E. S E E E E   +E  E S S S S a  E  E S  S  S  E
|----------------------|----------------------------------|
|--------------7-8-----|----------------------------------|
|---------9--9-7-7---5-|-(5)-5-----5-x-5-(5)-5-5-(5)(5)---|
|---------9--9-7-7---5-|-(5)-5-----5-x-7h=8--7-5h=7p=5----|
|---------7--7---------|-------5h7---x------------------7-|
|-0-0-0-0--------------|----------------------------------|


  N.C.    E5   D/DsusN.C.
          ~~                                   ~~~~~
  S S S S E. S E E E E   +E  E S S S S  Q      Q
|----------------------|---------------18-----18-----|
|--------------7-8-----|---------------21b23--21b23--|
|---------9--9-7-7---5-|-(5)-5-----5-x---------------|
|---------9--9-7-7---5-|-(5)-5-----5-x---------------|
|---------7--7---------|-------5h7---x---------------|
|-0-0-0-0--------------|-----------------------------|


        E5   D/DsusN.C.
        ~~                                            ~
                                             |--3--|
  S S E E. S E E E E   +E  E S S S S a  E  E S  S  S  E
|--------------------|----------------------------------|
|-x-x--------7-8-----|----------------------------------|
|-x-x---9--9-7-7---5-|-(5)-5-----5-x-5-(5)-5-5-(5)(5)---|
|-x-x---9--9-7-7---5-|-(5)-5-----5-x-7h=8--7-5h=7p=5----|
|-------7--7---------|-------5h7---x------------------7-|
|-----0--------------|----------------------------------|


                                                          |---3---|
  S S S S S S E S S S S S S E   S S S S S S E  a  E   E   S   S   S  E
|-----------------------------|-----------------------------------------|
|-----------------------------|-----------------------------------------|
|-----------------------------|-----------------------------------------|
|-----------------------------|---------------(7)(7)-(7)-(7)-(7)-(7)----|
|-------------5-------------5-|-------------7--9h10---9---7---9---7-----|
|-0-0-0-0-5s7---3-3-3-3-5s7---|-5-5-5-5-7s9--------------------------9--|


 Theme
  (D)                     (A)
                                      |--3--|
  Q   S S  S   S   E  E E   E    +E   S  S  S E E +E  S S S S S S
|-----------------------------|-----------------------------------|
|-----------------------------|-----------------------------------|
|-7--/9-7--9s=11-/11-\9-7-----|---------------------------------6-|
|-0-------(0)------0--0-0-/11-|-(11)-11s12s11-9-7-(7)-7h9---7h9---|
|---------------------------0-|--(0)--0-------0-0-(0)-----9-------|
|-----------------------------|-----------------------------------|


  (Bm)                          (G)
      PM|                        ~~~~~~~~~
                          |-3-|
  S S S S  a  Q   a  E  E S S S  E    +E  S  S S S S S a  e  E S  T  T  S S
|----------------------------------|----------------------------------------|
|---------(7)(7)--7-(7)-7----------|---------------7---8s10-\8-8-(8)(8)-----|
|-6s7------7h=9---7h=9--7-7--------|-----------7---7---7s=9-\7-7h=9p=7----7-|
|----------7-(7)----------7h9p7----|-----------7h9---9------------------9-7-|
|-----0-------------------------10-|-(10)-7h10------------------------------|
|-------7--------------------------|----------------------------------------|


  (D)                          (A)
                                              |--3--|
   S S  E   S S S  S    E  E E   E    +S   S  S  S  S E E +E  S S S S S S
|----------------------------------|--------------------------------------|
|----------------------------------|--------------------------------------|
|------(7)-/9-7-9s11--/11-\9-7-----|------------------------------------6-|
|------(7)------0-(0)---0--0-0-/11-|-(11)-11-11s12s11-9-7-(7)-7h9---7h9---|
|-\7-5--5------------------------0-|--(0)--0--0---------0-(0)-----9-------|
|----------------------------------|--------------------------------------|


  (Bm)                          (G)
      PM|                        ~~~~~~~~~
                          |-3-|
  S S S S  a  Q   a  E  E S S S  E    +H     E  E E  E
|----------------------------------|----------------------|
|---------(7)(7)--7-(7)-7----------|----------------------|
|-6s7------7h=9---7h=9--7-7--------|--------------7-10b12-|
|----------7-(7)----------7h9p7----|-----------/9---------|
|-----0-------------------------10-|-(10)-----------------|
|-------7--------------------------|----------------------|


 Verse 2
  (D)
         ~~~
               |-----3------|
  Q     +H     E    +E     +E
|---------------------------------|
|--------------8b10-(8)b10-(8)b10-|
|-9b11--(9)-----------------------|
|---------------------------------|
|---------------------------------|
|---------------------------------|


  (A)                                    (Bm)
                                           ~~    ~~~     ~          ~~
   |----3----| |-3-| |--3--|  |--3---|                       |-3-|
  +E     +E  E E E E Q     E  E E a  e   a E. S +E   E a E E S S S  E
|--------------------------------------|-------------------------------|
|-(8)b10r(8)p7-------------------------|-------------------------------|
|--------------9p7p6-6pb7rp4-----------|-------------------------------|
|-------------------------------7-9s11-|-7h9--7-(7)--------------------|
|----------------------------/9--------|------------\7-5s7-5-----5-----|
|--------------------------------------|---------------------5h7---/7--|


  (G)
  +Q.    S S S S S S a E S  S
|------------------------------|
|------------------------------|
|------------------------------|
|------------------------------|
|------------------------5-----|
|-(7)\-----3-3-3-3-3-5s7---(5)-|


  (D)                         (A)                    (B°)
                                                       |-3-|
  a E E  E E +E  a S S a  e a E   +E.  T T Q  E    S S E E E
|-------------------------------|------------------------------|
|-------------------------------|------------------7-8---------|
|-------------------------------|-------------9b11-----6---6---|
|-----7--------------7-9s11-7s9-|-(9)-11p9p7-------------8-----|
|-7s9---\7-5-(5)-7s9------------|------------------------------|
|-------------------------------|------------------------------|


  (Bm)
            ~~
                 |-3-|
  E   +S  S Q.   S S S E    E
|-----------------------------|
|---------------------------7-|
|-7b9-(7)p6s4--------4-9b11---|
|----------------4h7----------|
|-----------------------------|
|-----------------------------|


        (G)                   (D)
        ~~~~~~                 ~~~~~
  |-3-|             |--3--|             |---3----|
  S S S E +H     E  S  S  S    H        Q     Q  Q
|------------------------10-|-12b14----12b14-12-10--|
|-7h8p7------------10h12----|-----------------------|
|-------7-(7)---------------|-----------------------|
|---------------------------|-----------------------|
|---------------------------|-----------------------|
|---------------------------|-----------------------|


  (A)                                (Bm)                (G)
           ~                          ~~~~~~
  |---3----|               |--3--|
  Q      Q Q +Q   S  S     S  S  S    Q   Q   E.  S  +e   E
|-9pb10r==================14-15s17-|-15--15--14--17-(17)----|
|-------10----------17b19----------|---------------------15-|
|----------9-(9)-------------------|------------------------|
|----------------------------------|------------------------|
|----------------------------------|------------------------|
|----------------------------------|------------------------|


                                      (D)
           |---3---|       |--3---|    |--3--|  |--3---|           |--3--|
   +H      Q      +E      +E   E  E    E  E  E  E  E  +E       Q   S  S  S E
|---------14pb15r(14)b15-(14)-------|-----------------------------------------|
|-(15)------------------------15----|-----------------------------------------|
|--------------------------------14-|-12p11h12-14-12-(12)b14==12r=11h12p11p9--|
|-----------------------------------|-----------------------------------------|
|-----------------------------------|-----------------------------------------|
|-----------------------------------|-----------------------------------------|


  (A)
                       ~
                         |-3-|
  +E   S S   S S S  S  E S S S S S E
|---------------------------------------|
|---------------------------------------|
|-(9)----9-----9-----------------7-9b11-|
|-----12---/11---9p(0)-7-----7-9--------|
|------------------------7-9------------|
|---------------------------------------|


  (Bm)                         (G)
    ~~                          ~~~~~~~~~~
  a E.S S S S S     E E  E      E    +H      Q    E S S
|---------------------------------|---------------------|
|-----------------------10b12==10-|-(10)r---------------|
|-7s9p7-------7b7.5---------------|---------------------|
|-------9p7-9-------9-7-----------|----------x\-----7h9-|
|---------------------------------|----------x\--/9-----|
|---------------------------------|---------------------|


 Solo
  (F#m)                  (D)
             ~~
  a  E S  S  H     E      E
|---------------------------|
|-----------------10b12==10-|
|------9s11-11--------------|
|-9s11----------------------|
|---------------------------|
|---------------------------|


                                         (F#m)                    (Bm)
                                                                  ~
   +E    E.     S  +E   E. S +E  a S S   a  E.T T E.S E.S S +S    E
|--------------------------------------|----------------------------|
|-(10)r-10pb12r10-(10)-10--8-(8)-7h8p7-|----------------------------|
|--------------------------------------|-9s11p9p7s6h9-7s2-4-(4)b7r4-|
|--------------------------------------|----------------------------|
|--------------------------------------|----------------------------|
|--------------------------------------|----------------------------|


                  (A)
   ~~~                PM    PM    PM    PM
                  |-3-| |-3-| |-3-| |-3-|
  +E  S S S S S S S S S S S S S S S S S S
|-----------------------------------------|
|-----------------------------------------|
|-(4)-----2-2-----2p0---4p0---6p0---7p0---|
|-----2h4-----2h4-----2-----2-----4-----7-|
|-----------------------------------------|
|-----------------------------------------|


  (G)                           (F#m)
              ~~~~~~
                                          |--3--|  |--3--|  |--3--|
  Q     e     E +E  E S S S S    E.    S  E  E  E  E  E  E  E  E  E
|-----------------------------|--------------------------------------|
|-----------------------------|-------12-15-14-12----------------12--|
|-9b11--9b12-/9-(9)-7-----7-9s|=14b16-------------14p12-11-12-11-----|
|---------------------7-9-----|--------------------------------------|
|-----------------------------|--------------------------------------|
|-----------------------------|--------------------------------------|


                     ~~~~~~~~~~~~
   E.     +S   S  S  E      +Q    E.  S
|---------------------------------------|
|-12b14==(12)r11h12-12b14==(12)r--------|
|---------------------------------x\-12-|
|---------------------------------x\----|
|---------------------------------x\----|
|---------------------------------------|


  (Bb°)
   S  S  S  S  S   S  S   S  S   S  S  S S  S   E
|-12--------------------------------------------------|
|-------14--------------------------------------------|
|----12-------15-----12-----15-----12----9-(0)-11b12r=|
|----------14----\11----/14----\11----\8----0---------|
|-----------------------------------------------------|
|-----------------------------------------------------|


 Theme
  (D)                         (A)
                                          |--3--|
   Q   +S   S  S   S   E  E E   E    +E   S  S  S E E +E  S S S S S S
|---------------------------------|-----------------------------------|
|---------------------------------|-----------------------------------|
|-11--(11)/----9s=11-/11-\9-7-----|---------------------------------6-|
|--0----------(0)------0--0-0-/11-|-(11)-11s12s11-9-7-(7)-7h9---7h9---|
|-------------------------------0-|--(0)--0-------0-0-(0)-----9-------|
|---------------------------------|-----------------------------------|


  (Bm)                          (G)
      PM|                        ~~~~~~~~~
                          |-3-|
  S S S S  a  Q   a  E  E S S S  E    +E  S  S S S S S a  e  E S  T  T  S S
|----------------------------------|----------------------------------------|
|---------(7)(7)--7-(7)-7----------|---------------7---8s10-\8-8-(8)(8)-----|
|-6s7------7h=9---7h=9--7-7--------|-----------7---7---7s=9-\7-7h=9p=7----7-|
|----------7-(7)----------7h9p7----|-----------7h9---9------------------9-7-|
|-----0-------------------------10-|-(10)-7h10------------------------------|
|-------7--------------------------|----------------------------------------|


       (D)                     (A)
                                              |--3--|
   S S  E   S S S  S    E  E E   E    +S   S  S  S  S E E  E  S S S S S S
|----------------------------------|--------------------------------------|
|----------------------------------|--------------------------------------|
|------(7)-/9-7-9s11--/11-\9-7-----|-----------------------7------------6s|
|------(7)------0-(0)---0--0-0-/11-|-(11)-11-11s12s11-9-7-(7)-7h9---7h9---|
|-\7-5--5------------------------0-|--(0)--0--0---------0-(0)-----9-------|
|----------------------------------|--------------------------------------|


  (Bm)
                                       ~~~~~~~~~~~
  S S S S S S  S  S  S  S  S  S  S  S  S      +S
|-------------------------------------------------|
|-------------------------------------------------|
|-7-7-7s9-9-9s11-11-11s14-14-14-16-18-16b18==(16)-|
|-------------------------------------------------|
|-------------------------------------------------|
|-------------------------------------------------|


 Solo 2
    ~~~~~                                             ~~~~
   +Q.     E     E.     S  +E   E    E.     S  E  E  +E   S  S  E.     S
|---------------------------------|--------------------------------------|
|---------15b17-15b17==15r(15)-14-|-14pb15r==============15-17-15b17==15r|
|-(16)r---------------------------|--------14s16-16-(16)-----------------|
|---------------------------------|--------------------------------------|
|---------------------------------|--------------------------------------|
|---------------------------------|--------------------------------------|


  (A)
                                 ~~~~~~~~~~~~~~~~~~
   |--3--|   |----3----|  |-------3-------|
   E  E  E  +E      E  E  E     +E       +E   +E    S  S
|------------------14-17-17b19r(17)b19==(17)-(17)r-15p14-|
|-14-15-17-(17)b19---------------------------------------|
|--------------------------------------------------------|
|--------------------------------------------------------|
|--------------------------------------------------------|
|--------------------------------------------------------|


  (Em)
   |--3--|  |--3--|              |--3--|  |--3--|  |--3--|  |--3--|
   S  S  S  S  S  S  T  T  T  T  S  S  S  S  S  S  S  S  S  S  S  S  T  T  T  T
|-15-14-17p15p14----15p14-------------------------------------------------------|
|----------------17-------17p14----17p14----15p14----------14-------------------|
|-------------------------------16-------16-------16p14-------14s16-------------|
|-------------------------------------------------------16----------15s14p12----|
|----------------------------------------------------------------------------14-|
|-------------------------------------------------------------------------------|


  (G)
                                            ~~~~~
    |--3---|  |--3--|  |---3----|  |--3--|
    S   S  S  S  S  S  S  S  a  S  S  S  S  Q.      S  S
|---------------------------------------------------------|
|--------------------------------------------------15-----|
|---------------------------------14----14-16b18------14--|
|--14p=12-------12-------12-14s16----16-------------------|
|-(14)----14p12----12h14----------------------------------|
|---------------------------------------------------------|


  (D)                         (A)
   ~~       ~~
   E  S  S  E  S  S  E     E  E.   S
|-------------------------15\-----------|
|-15-15----17-17----17b19-----x\-\17b19-|
|-------14-------14-----------x\--------|
|---------------------------------------|
|---------------------------------------|
|---------------------------------------|


   |--3--|  |--3--|  |-----5-----|  |----5-----|  |----5-----| |---5---| |---5---|
   S  S  S  S  S  S  T  T  T  T  T  T  T  T  T T  T  T  T  T T T T T T T S S S S S
|-14-17p14-15p14----12h14p12-------10h12p10-----------------------------------------|
|----------------15----------12s10----------10s8-10h12p10------7h8p7----------------|
|---------------------------------------------------------11s9-------9p7-7h9p7------|
|------------------------------------------------------------------------------9p7--|
|-----------------------------------------------------------------------------------|
|-----------------------------------------------------------------------------------|


  (Bm)                                  (G)
  |-3--| |-3-| |--3--| |-3-| |---5----|
  S S  S S S S S T T S S S S S  S S S S E   +E
|--------------------------------------------------|
|--------------------------------------------------|
|-7-9s11s9-7---9-7h9p7------------------7b9-(7)b9==|
|------------9---------9p7---7---------------------|
|--------------------------9---/9p7p5p0------------|
|--------------------------------------------------|


                                 ~
  +S   S    +E   +E.   E   S E   Q
|-----------------------------------|
|-----------------------------------|
|-(7)r-7b9==(7)r-(7)b9-7b9r6-6b7r===|
|--------------------------------9--|
|-----------------------------------|
|-----------------------------------|


  (Bm)
   S S S S S S S S S S S S S  S  S  S
|-------------------------------------|
|-------------------------------------|
|-/4-4-4-4s6-6-6s7-7-7s9-9-9s11-11-11-|
|-------------------------------------|
|-/2-2-2-2s4-4-4s5-5-5s7-7-7s=9--9--9-|
|-------------------------------------|


  (A)
   +S   S  S  S  S  S  S  S  S  S  S  S  S  S  S  S
|---------------------------------------------------|
|---------------------------------------------------|
|-(11)-11-11-11-11-11-11-11-11-11s14-14-14-14-14s16-|
|---------------------------------------------------|
|--(9)--9--9--9--9--9--9--9--9--9s12-12-12-12-12s14-|
|---------------------------------------------------|


  (Em)
                           |--3--|  |--3--|  |--3--|
   E  S  S     +Q    E     S  S  S  S  S  S  S  S  S
|-------------------------14-17----14----19----17-14-|
|-----x-18b19r(18)--18b19r======18----18----18-------|
|-16\-x----------------------------------------------|
|----------------------------------------------------|
|-14\------------------------------------------------|
|----------------------------------------------------|


  (G)
   |--3--|  |--3--|  |--3--|  |--3--|  |--3--|           |-3-|
   S  S  S  S  S  S  S  S  S  S  S  S  S  S  S  T  T T T S S S e
|-14----14----14------------------------------------------------------|
|----18----17----14-15p14----15p14------------------------------------|
|-------------------------16-------16p14----14-12p11p9p7-------9b11---|
|----------------------------------------16--------------9-7h9--------|
|---------------------------------------------------------------------|
|---------------------------------------------------------------------|


 Outro
  (D)                     (A)
  ~
                                      |--3--|
  Q   S S  S   S   E  E E   E    +E   S  S  S E E +E  S S S S S S
|-----------------------------|-----------------------------------|
|-----------------------------|-----------------------------------|
|-7--/9-7--9s=11-/11-\9-7-----|---------------------------------6-|
|---------(0)------0--0-0-/11-|-(11)-11s12s11-9-7-(7)-7h9---7h9---|
|---------------------------0-|--(0)--0-------0-0-(0)-----9-------|
|-----------------------------|-----------------------------------|


  (Bm)                          G5                            Dadd11/G
                                     >
      PM|
                          |-3-|
  S S S S  a  Q   a  E  E S S S E   +W           +W            W
|---------------------------------|------------|------------|-^2----*|
|---------(7)(7)--7-(7)-7---------|------------|------------|-^3----*|
|-6s7------7h=9---7h=9--7-7-----0-|-(0)--------|-(0)--------|-^0----*|
|----------7-(7)----------7h9p7-0-|-(0)--------|-(0)--------|-------*|
|-----0---------------------------|------------|------------|-------*|
|-------7-----------------------3-|-(3)--------|-(3)--------|-------*|



Duration Legend
---------------
W - whole; H - half; Q - quarter; E - 8th; S - 16th; T - 32nd; X - 64th; a - acciaccatura
+ - note tied to previous; . - note dotted; .. - note double dotted
Uncapitalized letters represent notes that are staccato (1/2 duration)
Irregular groupings are notated above the duration line
Duration letters will always appear directly above the note/fret number it represents the
duration for.  Duration letters with no fret number below them represent rests.  Multi-
bar rests are notated in the form Wxn, where n is the number of bars to rest for.  Low
melody durations appear below the staff

Tablature Legend
----------------
 h   - hammer-on
 p   - pull-off
 b   - bend
 pb  - pre-bend
 r   - bend release (if no number after the r, then release immediately)
 /\  - slide into or out of (from/to "nowhere")
 s   - legato slide
 S   - shift slide
 - natural harmonic
[n]  - artificial harmonic
n(n) - tapped harmonic
 ~   - vibrato
 tr  - trill
 T   - tap
 TP  - trem. picking
 PM  - palm muting
\n/  - tremolo bar dip; n = amount to dip
 \n  - tremolo bar down
 n/  - tremolo bar up
/n\  - tremolo bar inverted dip
 =   - hold bend; also acts as connecting device for hammers/pulls
 <> - volume swell (louder/softer)
 x   - on rhythm slash represents muted slash
 o   - on rhythm slash represents single note slash

Misc Legend
-----------
 |  - bar
||  - double bar
||o - repeat start
o|| - repeat end
*|  - double bar (ending)
 :  - bar (freetime)
 $  - Segno
 &  - Coda
Tempo markers -  = BPM(8/16=s8/s16), where s8 = swing 8ths, s16 = swing 16ths
            
Submit corrections

comments powered by Disqus
↑ Back to top | Andy Timmons Tabs for Electric Gypsy. Lyrics for acoustic guitar and electric guitar. Tablatures and chords are parodies/interpretations of the original songs. You may use it for private study, scholarship, research or language learning purposes only