» » »

Andy Timmons, Electric Gypsy Tabs (ver.2)

Artists:  A B C D E F G H I J K L M N O P Q R S T U V W X Y Z # 

Electric Gypsy Tabs (ver.2)

Andy Timmons Tabs
 Rating:
2.7/5 (7 votes)
Electric Gypsy lessons Tabs too difficult? Try these video lessons and learn fast
1
                (Intro)
----------------------------------------------------------------------------
                             ~ELECTRIC GYPSY~ - Andy Timmons
----------------------------------------------------------------------------




I noticed that every single tab I found for this was wrong, so I had to listen to it BY
and work it out =]. It's like 12 am and I seriously CANNOT be bothered to do anymore
I'll finish it soon. If your intensly desperate, I know a little more, but I am unsure 
it. E-mail me [although I proably won't mail back cos I'm a lazy f**ker]


Tuning: E-A-D-G-B-e

    C#             G#                               Bb          F#
e|-------------------------------------------------------------------------|
B|--------6--6--------------------------------------6--6-6-----------------|
G|--------6--6-8-6-5--5-6h-5p---------------5-5-6h--8--8-6p----------------|
D|-----------------------------8-6--6-8-6-8---------8--8-8--8-6p-------6-8-|
A|--4-4-4-------------------------------------------------------9--6-9-----|
E|-------------------------------------------------------------------------|
                            C#
e|--------------------------------|
B|-------7/-9-7-------------------|
G|--6-8--6/-8-6--8-6--------------|
D|-------------------8-6----------|
A|-----------------------9\-4--4-4|
E|--------------------------------|

Like I said, there's bugger all here, but [even though everyone SAYS this] I HAVE
only been playin for like two years. Furthermore, I'm yawning my cock off, so you understand
I'm not too bothered about doing anymore this morning!


| /  slide up
| \  slide down
| h  hammer-on
| p  pull-off
| ~  vibrato
| +  harmonic
| x  Mute note

============================================================================
            
Submit corrections

comments powered by Disqus
↑ Back to top | Andy Timmons Tabs for Electric Gypsy. Lyrics for acoustic guitar and electric guitar. 1 Tablatures and chords are parodies/interpretations of the original songs. You may use it for private study, scholarship, research or language learning purposes only