» » »

Whiskey Walk Tabs (ver.2)

Artists:  A B C D E F G H I J K L M N O P Q R S T U V W X Y Z # 

Whiskey Walk Tabs (ver.2)

American Bang
Rating:
0/5 (0 votes)

Hard to play? Try these video lessons and learn fast.
                (Intro)
So i noticed there were no tabs for this great song so i decided to try and learn it and 
post one up here.
[Capo-3]

Intro:
    e|-----------------------------------------------|
    b|-----------------------------------------------|
    g|-----------------------------------------------|
    d|-------------------------8---------------------|
    a|-10~-10~-8-10-8----8-10~---10~-8-10-8--------8-|
    E|----------------10--------------------10-9-8-6-|
Pre-verse:
    e|----------------------------------------------------------|
    b|----------------------------------------------------------|
    g|----------------------------------------------------------|
    d|-------------------------8h10-10b(11)10b(11)-8---------5~-|
    a|-10~-10~-8-10-8----8-10~-----------------------10p8h10-5~-|
    E|----------------10-------------------------------------0~-|
    Verse           -5~-|
                    -5~-|
    Intro-end with: -0~-|

    Pre-chorus:
    e|---------------|
    b|---------------|
    g|-0~-5~-5-5-5p0-|
    d|-0~-5~-5-5-5---|
    a|---------------|
    E|---------------|

And all i know right now is the chorus consist of these chords:

Em G A G Em G A    E G A G E G A   G

I'll Get the rest soon but for now i hope you enjoy it :) Thanks!
            
Hard to play? Try these video lessons and learn fast. | Correct




comments powered by Disqus
↑ Back to top | Tablatures and chords are parodies/interpretations of the original songs. You may use it for private study, scholarship, research or language learning purposes only