» » »

Whiskey Walk Tabs (ver.1)

Artists:  A B C D E F G H I J K L M N O P Q R S T U V W X Y Z # 

Whiskey Walk Tabs (ver.1)

American Bang
Rating:
4/5 (1 vote)

Hard to play? Try these video lessons and learn fast.
                (Intro)
American Bang - Whiskey Walk

This is my first tab, its not a hard song to play this intro is just about perfect. 
Timing is a little tricky, just listen to the song to get it down.

  hold ---->           hold -------------------------------------------------|
E----------------------------------------------------------------------------|
B---------------------18-----------------------------------------------------|
G-15-------------------------------------------------------------------------|
D----------------------------------------------------------------------------|
A----------------------------------------------------------------------------|
E----------------------------------------------------------------------------|


E--------------------------------------------------------------------------|
B--------------------------------------------------------------------------|
G------------------3-------------------------------------------------------|
D-5-5-3-5-3---3-5-----5-3-5-3----------------------------------------------|
A-----------5-----------------5-4-3-1--------------------------------------|
E--------------------------------------------------------------------------|


E--------------------------------------------------------------------------|
B--------------------------------------------------------------------------|
G------------------3-------------------------------------------------------|
D-5-5-3-5-3---3-5-----5-3-5-3-------------5--------------------------------|
A-----------5-----------------5-4-3-1-----5--------------------------------|
E-----------------------------------------3--------------------------------|


E-----------------------------------------------------------------------------|
B-----------------------------------------------------------------------------|
G------------------3----------------------------------------------------------|
D-5-5-3-5-3---3-5-----5-3-5-3-------------5-----------------------------------|
A-----------5-----------------5-4-3-1-----5-----------------------------------|
E-----------------------------------------3-----------------------------------|


E------------------------------------------------------------------------|
B---------------5-5-5s3--------------------------------------------------|
G---------------5-5-5s3--------------------------------------------------|
D---8----10-----5-5-5s3--------------------------------------------------|
A---8----10--------------------------------------------------------------|
E---6----8---------------------------------------------------------------|
            
Hard to play? Try these video lessons and learn fast. | Correct




comments powered by Disqus
↑ Back to top | Tablatures and chords are parodies/interpretations of the original songs. You may use it for private study, scholarship, research or language learning purposes only