>
 >
Down To My Last

Down To My Last Guitar Tabs

Alter Bridge - Down To My Last chords, tabs, tablatures, lyrics

Guitar lessons | Add/correct | Request | Top 50 tabs Artists:  A B C D E F G H I J K L M N O P Q R S T U V W X Y Z 0-9

Down To My Last Guitar Tabs – Alter Bridge

CD, Sheet music, Poster

Do you like Down To My Last? Share with your friends now
Bass TabsBass Tabs v2ChordsChords v2TabsTabs v2Tabs v3UkuleleUkulele v2
Band- Alter Bridge
Song- Down To My Last

I got the solo!!!!!

Intro - Distortion

eb|-------------------------------------------------------------------|
Bb|-------------------------------------------------------------------|
Gb|-------------------------------------------------------------------|
Db|-11--11-11-12-12/14--14-12-11-11----------------------------------|
Ab|-0---0---0--0--0------0--0--0--0---14--14--11-12-12/14--14-12-11---|
Eb|-----------------------------------0---0---0--0--0------0--0--0----|
                                   
                                  
eb|--------------------------------------------------------------|
Bb|--------------------------------------------------------------|
Gb|-11--11--11-9-9----14p12p11-----------------------------------|
Db|-0---0---0--0-0--0----------12p11p9-11--11-11-9---7-9b(1)r-7-|
Ab|-0---0---0--0-0--0------------------0---0--0--0---(0)-------0-|
Eb|--------------------------------------------------------------|


Verse 1 - clean

eb|---------------------------------------------------|
Bb|---------------------------------------------------|
Gb|---------------------------------------------------|
Db|-11--11-11-12--12-12-11---------------------------|
Ab|-0---0---0--0---0--0--0---11--11--11-12--12-12-11--|
Eb|--------------------------0---0---0--0---0--0--0---|
                                                                     
eb|---------------------------------------------------------|
Bb|---------------------------------------------------------|
Gb|-11--11--11-9--9-9-9p7\6---------------------------------|
Db|-0---0---0--0--0-0-0------11-11--11-12-12-12-12-11-9--|
Ab|--------------------------0---0---0--0---0--0--0-0---0--|
Eb|---------------------------------------------------------|

eb|----------------------------------------------------|
Bb|----------------------------------------------------|
Gb|----------------------------------------------------|
Db|-/11--11-11-12--12-12-11---------------------------|
Ab|--0---0---0--0---0--0--0---11--11--11-12--12-12-11--|
Eb|---------------------------0---0---0--0---0--0--0---|
                                   
eb|------------------------------------------------------------------|
Bb|------------------------------------------------------------------|
Gb|-11--11--11-9--9-9-11brp9------14--14-14-14--14-14--14-14--14-14--|
Db|-0---0---0--0--0-0-0------119-11--11-1111--11-12--12-12-12-11--|
Ab|-------------------------------0---0--0--0---0--0--0--0---0--0---|
Eb|------------------------------------------------------------------|


Verse - Distortion

eb|-------------------------------------------------------------------|
Bb|-------------------------------------------------------------------|
Gb|-------------------------------------------------------------------|
Db|-11--11-11-12-12/14--14-12-11-11----------------------------------|
Ab|-0---0---0--0--0------0--0--0--0---14--14--11-12-12/14--14-12-11---|
Eb|-----------------------------------0---0---0--0--0------0--0--0----|
                                   
eb|-------------------------------------------------------------------|
Bb|-------------------------------------------------------------------|
Gb|-11--11--11-9--9-9--9----------------------------------------------|
Db|-0---0---0--0--0-0--0--11-9-11--11-11-11-11-12-12-12-12-11--9---|
Ab|-0---0---0--0--0-0--0-------0---0--0--0---0-0---0--0---0--0---0---|
Eb|-------------------------------------------------------------------|

eb|-------------------------------------------------------------------|
Bb|-------------------------------------------------------------------|
Gb|-------------------------------------------------------------------|
Db|-/11--11-11-12-12/14--14-12-11-11---------------------------------|
Ab|--0---0---0--0--0------0--0--0--0---14--14--11-12-12/14--14-12-11--|
Eb|------------------------------------0---0---0--0--0------0--0--0---|

eb|------------------------------------------------|
Bb|--------------------------3--3--3-3-3-3--3-3-3--|
Gb|--------------------------2--2--2-2-2-2--2-2-2--|
Db|--4--4-----4--------------0--0--0-0-0-0--0-0-0--|
Ab|--4--4-4-4-4--4-4-4-4--4--0--0--0-0-0-0--0-0-0--|
Eb|--2--2-2-2-2--0-2-0-2--0------------------------|
          . .

Chorus

eb|-------------------------------------------------------------------|
Bb|-------------------------------------------------------------------|
Gb|-14--14--14-14-14-----14-14-14-14----------------------------------|
Db|-11--11-11-12-12h14--14-12-11-11--14--14--14-14-14-----14-14-14---|
Ab|-0---0---0--0--0------0--0--0--0---14--14--11-12-12h14--14-12-11---|
Eb|-----------------------------------0---0---0--0--0------0--0--0----|
                                   
eb|-------------------------------------------------------------------|
Bb|-------------------------------------------------------------------|
Gb|-11--11--11-9--911br9-------14--14-14-14--14-14--14-14--14-14-----|
Db|-0---0---0--0--0-0-----11-9--11--11-11-11-11-12-12-12-12-11--9--|
Ab|-0---0---0--0--0-------------0---0--0--0---0-0---0--0---0--0---0--|
Eb|-------------------------------------------------------------------|

eb|-------------------------------------------------------------------|
Bb|-------------------------------------------------------------------|
Gb|-14--14--14-14-14-----14-14-14-14----------------------------------|
Db|-11--11-11-12-12h14--14-12-11-11--14--14--14-14-14-----14-14-14---|
Ab|-0---0---0--0--0------0--0--0--0---14--14--11-12-12h14--14-12-11---|
Eb|-----------------------------------0---0---0--0--0------0--0--0----|

eb|--------------------------------------------------------------|
Bb|-----------------------------------------3--3--3-3-3-3--3-3-3-|
Gb|-2--2-2----------------------------------2--2--2-2-2-2--2-2-2-|
Db|-0--0-0--7--7-7--7-7--4--4-----------4---0--0--0-0-0-0--0-0-0-|
Ab|-0--0-0--4--4-4--4-4--4--4--4-4-4-4--4---0--0--0-0-0-0--0-0-0-|
Eb|----------------------2--2--0-2-0-2--2------------------------|
                               . . . .

Solo

eb|----------------17-------------------------------------------------|
Bb|-14-14--14-15-17---1717p15p14-------------------------------------|
Gb|-----------------------------161614--1416-14-16b-16b-14h16p14--14-|
Db|-------------------------------------------------------------------|
Ab|-------------------------------------------------------------------|
Eb| ------------------------------------------------------------------|

          						
p.h....................................
eb|--17---------------------------------------------------------------|
Bb|-----141517-17p15p14-----------------------------------------------|
Gb|--------------------18p16p14--14-13---14-13-11-14-13-11------------|
Db|-------------------------------------------------------------------|
Ab|-------------------------------------------------------------------|
Eb| ------------------------------------------------------------------|


eb|-------------------19b-17-21p19-21p19------------------------------|
Bb|-----------------------------------------------14h15h1717p15p14---|
Gb|-14---14-18-14-16----------------------14h16h18--------------------|
Db|-------------------------------------------------------------------|
Ab|-------------------------------------------------------------------|
Eb| ------------------------------------------------------------------|


eb|---17-19-17-21-----------------------------------------------------|
Bb|----------------14h15h17-17p15p14----------------------------------|
Gb|----------------------------------18h16h14-------------------------|
Db|--------------------------------------------11-11-11p9-9-9b-9b-7---|
Ab|-------------------------------------------------------------------|
Eb| ------------------------------------------------------------------|

Feedback with pinch harmonic on 7 (d string).

Play verse with flanger. 1x
Repeat chorus

ENJOY!!!!





Comments


Popular Alter Bridge tabs & chords
Blackbird Bass Tabs
Blackbird 3 Bass Tabs
Metalingus Bass Tabs
Watch Over You 1 Chords
Shed My Skin 1 Tabs
This Is The End (Intro) Tabs
Down To My Last Ukulele
Find The Real Ukulele
Ghosts Of Days Gone By Ukulele
Wonderful Life Ukulele


Song lyrics



↑ Back to top | Tablatures and chords are parodies/interpretations of the original songs. You may use it for private study, scholarship, research or language learning purposes only
© 2014 AZChords.com Contact us | Privacy policy | DMCA | Add/correct tabs | Request tabs | Top 50 tabs