>
 >
Blackbird

Blackbird Bass Tabs

Alter Bridge - Blackbird chords, tabs, tablatures, lyrics

Guitar lessons | Add/correct | Request | Top 50 tabs Artists:  A B C D E F G H I J K L M N O P Q R S T U V W X Y Z 0-9

Blackbird Bass Tabs – Alter Bridge

CD, Sheet music, Poster

Do you like Blackbird? Share with your friends now
Bass TabsBass Tabs v2Bass Tabs v3ChordsTabsTabs v2Tabs v3Tabs v4Ukulele
Alter Bridge - Blackbird
Tuning: 5-string down 1/2 step (Bb Eb Ab Db Gb) 

This can be played on a B-tuned 5-string bass with a few adjustments. I 

Bass Enters when the clean guitars are about to change to a heavy riff 
(0:51)
Gb-----------|------------|
Db-----------|------------|
Ab-----------|------------|
Eb--1--------|--6----5----|
Bb-----------|------------|

Heavy Riff - Play 2x
Gb---------------|-------------|-------------|--------------|
Db---------------|-------------|-------------|--------------|
Ab---------------|-------------|-------------|--------------|
Eb--3~~---5b6r5--|-2~~--5b6r5--|-1~~--5b6r5--|--6--6--5--5--|
Bb---------------|-------------|-------------|--------------|


Chorus - 
Gb-------------|-------------|-------------|-------------|---------|----------|
Db-------------|-------------|-------------|-------------|---------|----------|
Ab-------------|-------------|----------3--|-------------|---------|----------|
Eb-------------|-------------|-1-1-1--1---1|-0-0-0--0--0-|---------|------10\-|
Bb--4--4--4--4-|-3--3--3-3-3-|-------------|-------------|-4-4-4-4-|-3--------|


Verse 2-
Gb------------|------------|--------------|-------------------|
Db------------|------------|--------------|-------------------|
Ab---------5--|------------|------------0-|-1--1-3-1-0--0-1-0-|
Eb--3-----3-3-|-2----------|-1----1-3-4---|-------------------|
Bb------------|------2-----|--------------|-------------------|

Gb------------|------------|--------------|-------------------|
Db------------|------------|--------------|-------------------|
Ab-------/10~-|------------|------------0-|-1--1-3-1-0--0-1-0-|
Eb--3---------|-2----------|-1--------3---|-------------------|
Bb------------|-----2--2-2-|--------1-----|-------------------|

Gb-------------|------------|--------------|-------------------|
Db-------------|------------|--------------|-------------------|
Ab-------------|------------|------------0-|-1--1-3-1-0--0-1-0-|
Eb--3---3-5-6-5|-2----------|-1----1-3-4---|-------------------|
Bb-------------|------2-----|--------------|-------------------|

Gb------------|------------|--------------|-------------------|
Db------------|------------|--------------|-------------------|
Ab------------|------------|------------0-|-1--1-3-1-0--0-1-0-|
Eb--3---------|-2----------|-1----1---3---|-------------------|
Bb-------3----|------2-----|--------1-----|-------------------|

PreChorus (2:09)'- play 2x
Gb----------------|--------------|---------------|--------------|
Db----------------|--------------|---------------|--------------|
Ab----------------|--------------|---------------|--------------|
Eb--3~---5b6r5b6r5|-2~--5b6r5b6r5|-1~--5b6r5b6r5-|--6--6--5--5--|
Bb----------------|--------------|---------------|--------------|

Chorus 2- 
Chorus - 
Gb-------------|-------------|-------------|-------------|---------|---------|
Db-------------|-------------|-------------|-------------|---------|---------|
Ab-------------|-------------|----------3--|-------------|---------|---------|
Eb-------------|-------------|-1-1-1--1---1|-0-0-0--0--0-|---------|---------|
Bb--4--4--4--4-|-3--3--3-3-3-|-------------|-------------|-4-4-4-4-|-3-3-3-3-|

Gb-------------|------------|------------|-------------|-------------|-------------|
Db-------------|------------|------------|-------------|-------------|-------------|
Ab-------------|-------3--3-|------------|-------------|----------3--|-------------|
Eb--3--3--5--5-|-6--6-------|------------|-------------|-1-1-1--1---1|-0-0-0--0--0-|
Bb-------------|------------|-4--4--4--4-|-3--3--3-3-3-|-------------|-------------|

Gb---------------|-------------------------|
Db---------------|-------------------------|
Ab---------------|-------------------------|
Eb---------------|-6-6-6-6-6-6-6-6-6-6-6-6-|
Bb--4--4-4--4--4-|-------------------------|

Low riff (3:02)
Gb------------|------------|------------|-------------|
Db------------|------------|------------|-------------|
Ab------------|------------|------------|-------------|
Eb------------|------------|------------|-----2-3-2---|
Bb-3----------|-4-3--4-3-1-|-3----------|-3-4-------4-|

Gb------------|------------|------------|--------------|
Db------------|------------|------------|--------------|
Ab------------|------------|------------|-------0-1-/3-|
Eb------------|------------|------------|-----2--------|
Bb-3----------|-4-3--4-3-1-|-3----------|-3-4----------|

Guitar Interlude (3:22)
Gb------------|------------|------------|-------------|
Db------------|------------|------------|-------------|
Ab------------|------------|------------|-------------|
Eb-3----------|-(3)--------|------------|-------------|
Bb------------|------------|-4----------|-(4)---------|

Gb------------|------------|------------|-------------|
Db------------|------------|------------|-------------|
Ab------------|------------|------------|-10---\0-----| hold note then slide off
Eb-6----------|-5-------6-5|-3------/10-|-------------|
Bb------------|------------|------------|-------------|

Gb------------|------------|------------|-------------|
Db------------|------------|------------|-------------|
Ab------------|------------|------------|-------------|
Eb-3----------|--3---------|------------|-------------|
Bb------------|------------|-4----------|-4-4---------|

Gb------------|------------|------------|-12-10----------------------------|
Db------------|------------|------------|------12-11-10--------------------|
Ab------------|------------|------------|--------------12-13-12-10-8-10-12-| 
Eb-6-------5-6|-5-------6-5|------------|----------------------------------|
Bb------------|------------|-8----------|----------------------------------|


Vocals begin again (3:59)
Gb------------|--------------|------------------|--------------------|
Db------------|--------------|------------------|--------------------|
Ab------------|--------------|---6--6--6--6--6--|-6--6--6--6--6--6---|
Eb-3--------3-|-3-----3-5-6\-|------------------|--------------------|
Bb------------|--------------|-4--4--4--4--4--4-|---4--4--4--4--4--4-|

Gb------------|------------|--------|--------------|
Db------------|------------|--------|--------------|
Ab------------|------------|--------|--------------|
Eb-6--------6-|-5-------6-5|-3------|-3-----6--6-5-|
Bb------------|------------|--------|--------------|

Gb------------|--------------|-------------|--------------|
Db-------5----|--------------|-------------|--------------|
Ab------------|--------------|--------6----|--------------|
Eb-3--3-3---3-|-3-----3-6-6\-|-------------|--------------|
Bb------------|--------------|-4---------4-|-4--4--4--4---|

Gb------------|--------------|--------------|----------------------|
Db------------|--------------|--------------|----------------------|
Ab------------|--------------|--------------|----------------------|
Eb-6--6--6--6-|-6\5--5--5--5-|-3--3--3--3-3-|-3-/6-6-5-5-5/8-8-6-5-|
Bb------------|--------------|--------------|----------------------|


Myles Kennedy's Solo-
Gb------------|---------------|-------------|---------------|
Db------------|---------------|-------------|---------------|
Ab------------|---------------|-------6-----|---------------|
Eb-3--------3-|-3-----3/6-5-3-|-------------|---------------|
Bb------------|---------------|-4-----------|--4------4---4-|

Gb------------|------------|--------|--------------|
Db------------|------------|--------|--------------|
Ab------------|------------|--------|--------------|
Eb-6--------6-|-5-------6-5|-3------|-3----6--5-/8-|
Bb------------|------------|--------|--------------|

Gb------------|--------------|-------------|--------------|
Db-------5----|--------------|-------------|--------------|
Ab------------|--------------|-------6-----|--------------|
Eb-3--3-3---3-|-3----3--5--6-|-------------|--------------|
Bb------------|--------------|-4---------4-|-4--4--4--4---|

Gb----------------|-------------|--------------|--------------------|
Db----------------|-------------|--------------|--------------------|
Ab----------------|-------------|--------------|--------------------|
Eb-6--6--6--5b6r5-|-5--5--5--5--|-3--3-3--/3-3-|-/3-5-5-5-5/6-5-5-3-|
Bb----------------|-------------|--------------|--------------------|


(5:15) Mark Tremonti's Solo & Last Verse - Play this part 3x:
Gb-------------|-------------|-------------|-------------|---------|---------|
Db-------------|-------------|-------------|-------------|---------|---------|
Ab-------------|-------------|----------3--|-------------|---------|---------|
Eb-------------|-------------|-1-1-1--1---1|-0-0-0--0--0-|---------|---------|
Bb--4--4--4--4-|-3--3--3-3-3-|-------------|-------------|-4-4-4-4-|-3-3-3-3-|

Gb-------------|------------|
Db-------------|------------|
Ab-------------|-------3--3-|
Eb--3--3--5--5-|-6--6-------|
Bb-------------|------------|

Continued at 6:14
Gb-------------|-------------|-------------|-------------|------|-------|
Db-------------|-------------|-------------|-------------|------|-------|
Ab-------------|-------------|----------3--|-------------|------|-------|
Eb-------------|-------------|-1-1-1--1---1|-0-0-0--0--0-|------|-------|
Bb--4--4--4--4-|-3--3--3-3-3-|-------------|-------------|-4----|-3-----|

Repeat this part 4x
Gb----------------|--------------|---------------|--------------|
Db----------------|--------------|---------------|--------------|
Ab----------------|--------------|---------------|--1--1--0--0--|
Eb--3~---5b6r5b6r5|-2~--5b6r5b6r5|-1~--5b6r5b6r5-|--------------|
Bb----------------|--------------|---------------|--------------|

(7:08) Hold this note till fade out
Gb-----------|
Db-----------|
Ab-----------|
Eb--3--------|
Bb-----------|





Comments


Popular Alter Bridge tabs & chords
Wayward One Bass Tabs
In Loving Memory 4 Chords
Open Your Eyes Chords
Blackbird Tabs
Blackbird 1 Tabs
Broken Wings 2 Tabs
Come To Life 1 Tabs
Open Your Eyes Tabs
Open Your Eyes 8 Tabs
Wayward One Tabs


Song lyrics



↑ Back to top | Tablatures and chords are parodies/interpretations of the original songs. You may use it for private study, scholarship, research or language learning purposes only
© 2014 AZChords.com Contact us | Privacy policy | DMCA | Add/correct tabs | Request tabs | Top 50 tabs