» » »

Alpha Drive, Out Of Reach Tabs (ver.1)

Artists:  A B C D E F G H I J K L M N O P Q R S T U V W X Y Z # 

Out Of Reach Tabs (ver.1)

Alpha Drive Tabs
 Rating:
4/5 (4 votes)
Out Of Reach lessons Tabs too difficult? Try these video lessons and learn fast
                Notation:					
p    - pull off					
h    - hammer on					
...  - palm mute                                 
(..) - fade out of palm mute
/    - slide down                               
\    - slide up				        
~    - hold note                                 
x    - pause
()   - harmonics

*Tunning: Db, Ab, Db, Gb, Bb, Eb*


Intro   (with reverb)
eb|-----------------------------------|
Bb|-----------------------------------|
Gb|-----------------------------------|
Db|--1--0--0--0--1--0--0--0--1--0--3--|
Ab|-----------------------------------| x3
Db|-----------------------------------|

eb|------------------------------|
Bb|------------------------------|
Gb|------------------------------|
Db|--1--0--0--0--1--0--0--0--1x--|
Ab|------------------------------| 
Db|------------------------------|

eb|------------------------------------------------------------------------|
Bb|------------------------------------------------------------------------|
Gb|------------------------------------------------------------------------|
Db|--1--0--0--0--1--0--0--0--1--0--3------1--0--0--0--1--0--0--0--1--0--3--|
Ab|--1--0--0--0--1--0--0--0--1--0--3------1--0--0--0--1--0--0--0--1--0--3--|
Db|--1--0--0--0--1--0--0--0--1--0--3------1--0--0--0--1--0--0--0--1--0--3--|

eb|---------------------------------------------------------------------|
Bb|---------------------------------------------------------------------|
Gb|---------------------------------------------------------------------|
Db|--1--0--0--0--1--0--0--0--1--0--3------1--0--0--0--1--0--0--3--2--1--|
Ab|--1--0--0--0--1--0--0--0--1--0--3------1--0--0--0--1--0--0--3--2--1--|
Db|--1--0--0--0--1--0--0--0--1--0--3------1--0--0--0--1--0--0--3--2--1--|

eb|--------------------------------------------------------------|
Bb|--------------------------------------------------------------|
Gb|--------------------------------------------------------------|
Db|--1--0--0--0--1--0--0--0--1x------1--0--0--0--1--0--0--0--1x--|
Ab|--1--0--0--0--1--0--0--0--1x------1--0--0--0--1--0--0--0--1x--|
Db|--1--0--0--0--1--0--0--0--1x------1--0--0--0--1--0--0--0--1x--|

eb|-----------------------------------------------------------------------|
Bb|-----------------------------------------------------------------------|
Gb|-----------------------------------------------------------------------|
Db|--1--0--0--0--1--0--0--0--1x------1--0--0--0--1--0--0--10--9--8----7~--|
Ab|--1--0--0--0--1--0--0--0--1x------1--0--0--0--1--0--0---x--x--x----x~--|
Db|--1--0--0--0--1--0--0--0--1x------1--0--0--0--1--0--0---8--7--6----5~--|

Verse
eb|----------------------------------------------------------------------------|
Bb|----------------------------------------------------------------------------|
Gb|----------------------------------------------------------------------------|
Db|--1--0--0--0--1--0--0--0--1--0--3--0----1--0--0--0--1--0--0--0--1--0--3--0--|
Ab|--1--0--0--0--1--0--0--0--1--0--3--0----1--0--0--0--1--0--0--0--1--0--3--0--| x2
Db|--1--0--0--0--1--0--0--0--1--0--3--0----1--0--0--0--1--0--0--0--1--0--3--0--|

eb|------------------------------------------------------------------------|
Bb|------------------------------------------------------------------------|
Gb|------------------------------------------------------------------------|
Db|--3~---------------------1~-------------------0~------------------0~----|
Ab|--3~---------------------1~-------------------0~------------------0~----| 
Db|--3~---------------------1~-------------------0~------------------0~----|

Pre-Chorus
eb|-----------------------------------------------------------------------------|
Bb|-----------------------------------------------------------------------------|
Gb|--7--7--7--7--7--7--7--7--7--7--7--7--7--7--7--7--7--7--7--8--8--8--8--8--8--|
Db|--x--x--x--x--x--x--x--x--x--x--x--x--x--x--x--x--x--x--x--x--x--x--x--x--x--|
Ab|--5--5--5--5--5--5--5--5--5--5--5--5--5--5--5--5--5--5--5--6--6--6--6--6--6--| 
Db|-----------------------------------------------------------------------------|

eb|-----------------------------------------------------------------------------|
Bb|-----------------------------------------------------------------------------|
Gb|--7--7--7--7--7--7--7--7--7--7--7--7--7--7--7--7--7--7--7--9--9--9--9--9--9--|
Db|--x--x--x--x--x--x--x--x--x--x--x--x--x--x--x--x--x--x--x--x--x--x--x--x--x--|
Ab|--5--5--5--5--5--5--5--5--5--5--5--5--5--5--5--5--5--5--5--7--7--7--7--7--7--| 
Db|-----------------------------------------------------------------------------|

Chorus
eb|----------------------------------------------------------------------|
Bb|----------------------------------------------------------------------|
Gb|-------------------2-2-2-2-2-2-2-2-------------------2-2-2-2-2-2-2-2--|
Db|--0-0-0-0-0-0-0-0--2-2-2-2-2-2-2-2--0-0-0-0-0-0-0-0--2-2-2-2-2-2-2-2--|
Ab|--0-0-0-0-0-0-0-0--0-0-0-0-0-0-0-0--0-0-0-0-0-0-0-0--0-0-0-0-0-0-0-0--|
Db|--0-0-0-0-0-0-0-0-------------------0-0-0-0-0-0-0-0-------------------|

eb|-----------------------------------------------------------------------|
Bb|-----------------------------------------------------------------------|
Gb|--3-3-3-3-3-3----8--7--8~-----8--7--8~-----8--7--8~-----8-10--7~-------|
Db|--3-3-3-3-3-3----x--x--x~-----x--x--x~-----x--x--x~-----x--x--x~---0~--|
Ab|--1-1-1-1-1-1----6--5--6~-----6--5--6~-----6--5--6~-----6--8--5~---0~--|
Db|-------------------------------------------------------------------0~--|

Verse
eb|----------------------------------------------------------------------------|
Bb|----------------------------------------------------------------------------|
Gb|----------------------------------------------------------------------------|
Db|--1--0--0--0--1--0--0--0--1--0--3--0----1--0--0--0--1--0--0--0--1--0--3--0--|
Ab|--1--0--0--0--1--0--0--0--1--0--3--0----1--0--0--0--1--0--0--0--1--0--3--0--| x2
Db|--1--0--0--0--1--0--0--0--1--0--3--0----1--0--0--0--1--0--0--0--1--0--3--0--|

eb|------------------------------------------------------------------------|
Bb|------------------------------------------------------------------------|
Gb|------------------------------------------------------------------------|
Db|--3~---------------------1~-------------------0~------------------0~----|
Ab|--3~---------------------1~-------------------0~------------------0~----| 
Db|--3~---------------------1~-------------------0~------------------0~----|

Pre-Chorus
eb|-----------------------------------------------------------------------------|
Bb|-----------------------------------------------------------------------------|
Gb|--7--7--7--7--7--7--7--7--7--7--7--7--7--7--7--7--7--7--7--8--8--8--8--8--8--|
Db|--x--x--x--x--x--x--x--x--x--x--x--x--x--x--x--x--x--x--x--x--x--x--x--x--x--|
Ab|--5--5--5--5--5--5--5--5--5--5--5--5--5--5--5--5--5--5--5--6--6--6--6--6--6--| 
Db|-----------------------------------------------------------------------------|

eb|-----------------------------------------------------------------------------|
Bb|-----------------------------------------------------------------------------|
Gb|--7--7--7--7--7--7--7--7--7--7--7--7--7--7--7--7--7--7--7--9--9--9--9--9--9--|
Db|--x--x--x--x--x--x--x--x--x--x--x--x--x--x--x--x--x--x--x--x--x--x--x--x--x--|
Ab|--5--5--5--5--5--5--5--5--5--5--5--5--5--5--5--5--5--5--5--7--7--7--7--7--7--| 
Db|-----------------------------------------------------------------------------|

Chorus
eb|----------------------------------------------------------------------|
Bb|----------------------------------------------------------------------|
Gb|-------------------2-2-2-2-2-2-2-2-------------------2-2-2-2-2-2-2-2--|
Db|--0-0-0-0-0-0-0-0--2-2-2-2-2-2-2-2--0-0-0-0-0-0-0-0--2-2-2-2-2-2-2-2--|
Ab|--0-0-0-0-0-0-0-0--0-0-0-0-0-0-0-0--0-0-0-0-0-0-0-0--0-0-0-0-0-0-0-0--|
Db|--0-0-0-0-0-0-0-0-------------------0-0-0-0-0-0-0-0-------------------|

eb|------------------------------------------------------------------|
Bb|------------------------------------------------------------------|
Gb|--3-3-3-3-3-3----8--7--8~-----8--7--8~-----8--7--8~-----8-10--7~--|
Db|--3-3-3-3-3-3----x--x--x~-----x--x--x~-----x--x--x~-----x--x--x~--|
Ab|--1-1-1-1-1-1----6--5--6~-----6--5--6~-----6--5--6~-----6--8--5~--|
Db|------------------------------------------------------------------|

eb|----------------------------------------------------------------------|
Bb|----------------------------------------------------------------------|
Gb|-------------------2-2-2-2-2-2-2-2-------------------2-2-2-2-2-2-2-2--|
Db|--0-0-0-0-0-0-0-0--2-2-2-2-2-2-2-2--0-0-0-0-0-0-0-0--2-2-2-2-2-2-2-2--|
Ab|--0-0-0-0-0-0-0-0--0-0-0-0-0-0-0-0--0-0-0-0-0-0-0-0--0-0-0-0-0-0-0-0--|
Db|--0-0-0-0-0-0-0-0-------------------0-0-0-0-0-0-0-0-------------------|

eb|------------------------------------------------------------------|
Bb|------------------------------------------------------------------|
Gb|--3-3-3-3-3-3----8--7--8~-----8--7--8~-----8--7--8~----x----------|
Db|--3-3-3-3-3-3----x--x--x~-----x--x--x~-----x--x--x~----x----------|
Ab|--1-1-1-1-1-1----6--5--6~-----6--5--6~-----6--5--6~----x----------|
Db|------------------------------------------------------------------|

Breakdown
eb|--------------------------------------------------------------|
Bb|--------------------------------------------------------------|
Gb|--------------------------------------------------------------|
Db|--1--0--0--0--1--0--0--0--1x------1--0--0--0--1--0--0--0--1x--|
Ab|--1--0--0--0--1--0--0--0--1x------1--0--0--0--1--0--0--0--1x--| x4
Db|--1--0--0--0--1--0--0--0--1x------1--0--0--0--1--0--0--0--1x--|

Chorus
eb|----------------------------------------------------------------------|
Bb|----------------------------------------------------------------------|
Gb|-------------------2-2-2-2-2-2-2-2-------------------2-2-2-2-2-2-2-2--|
Db|--0-0-0-0-0-0-0-0--2-2-2-2-2-2-2-2--0-0-0-0-0-0-0-0--2-2-2-2-2-2-2-2--|
Ab|--0-0-0-0-0-0-0-0--0-0-0-0-0-0-0-0--0-0-0-0-0-0-0-0--0-0-0-0-0-0-0-0--|
Db|--0-0-0-0-0-0-0-0-------------------0-0-0-0-0-0-0-0-------------------|

eb|------------------------------------------------------------------|
Bb|------------------------------------------------------------------|
Gb|--3-3-3-3-3-3----8--7--8~-----8--7--8~-----8--7--8~-----8-10--7~--|
Db|--3-3-3-3-3-3----x--x--x~-----x--x--x~-----x--x--x~-----x--x--x~--|
Ab|--1-1-1-1-1-1----6--5--6~-----6--5--6~-----6--5--6~-----6--8--5~--|
Db|------------------------------------------------------------------|

eb|----------------------------------------------------------------------|
Bb|----------------------------------------------------------------------|
Gb|-------------------2-2-2-2-2-2-2-2-------------------2-2-2-2-2-2-2-2--|
Db|--0-0-0-0-0-0-0-0--2-2-2-2-2-2-2-2--0-0-0-0-0-0-0-0--2-2-2-2-2-2-2-2--|
Ab|--0-0-0-0-0-0-0-0--0-0-0-0-0-0-0-0--0-0-0-0-0-0-0-0--0-0-0-0-0-0-0-0--|
Db|--0-0-0-0-0-0-0-0-------------------0-0-0-0-0-0-0-0-------------------|

eb|-----------------------------------------------------------------|
Bb|-----------------------------------------------------------------|
Gb|--3-3-3-3-3-3----8--7--8~-----8--7--8~-----8--7--8~--------------|
Db|--3-3-3-3-3-3----x--x--x~-----x--x--x~-----x--x--x~--------------|
Ab|--1-1-1-1-1-1----6--5--6~-----6--5--6~-----6--5--6~--------------|
Db|-----------------------------------------------------------------|

Ending   (with reverb)
eb|-----------------------------------|
Bb|-----------------------------------|
Gb|-----------------------------------|
Db|--1--0--0--0--1--0--0--0--1--0--3--|
Ab|-----------------------------------| x3
Db|-----------------------------------|

eb|------------------------------|
Bb|------------------------------|
Gb|------------------------------|
Db|--1--0--0--0--1--0--0--0--1x--|
Ab|------------------------------| 
Db|------------------------------|

eb|-------------------------------------------------------------------|
Bb|-------------------------------------------------------------------|
Gb|-------------------------------------------------------------------|
Db|--1--0--0--0--1--0--0--0--1--0--3------1--0--0--0--1--0--0--0--1x--|
Ab|--1--0--0--0--1--0--0--0--1--0--3------1--0--0--0--1--0--0--0--1x--| x3
Db|--1--0--0--0--1--0--0--0--1--0--3------1--0--0--0--1--0--0--0--1x--|

eb|--------------------------------------------------------------------------|
Bb|--------------------------------------------------------------------------|
Gb|--------------------------------------------------------------------------|
Db|--1--0--0--0--1--0--0--0--1--0--3------1--0--0--0--0--1--0--10--9--8--7~--|
Ab|--1--0--0--0--1--0--0--0--1--0--3------1--0--0--0--0--1--0---x--x--x--x~--|
Db|--1--0--0--0--1--0--0--0--1--0--3------1--0--0--0--0--1--0---8--7--6--5~--|
            
Submit corrections

comments powered by Disqus
↑ Back to top | Alpha Drive Tabs for Out Of Reach. Lyrics for acoustic guitar and electric guitar. Tablatures and chords are parodies/interpretations of the original songs. You may use it for private study, scholarship, research or language learning purposes only