» » »

Alpha Drive, Out Of Reach Tabs (ver.2)

Artists:  A B C D E F G H I J K L M N O P Q R S T U V W X Y Z # 

Out Of Reach Tabs (ver.2)

Alpha Drive Tabs
 Rating:
4/5 (4 votes)
Out Of Reach lessons Tabs too difficult? Try these video lessons and learn fast
1
                Notation:					
p    - pull off					
h    - hammer on					
...  - palm mute                                 
(..) - fade out of palm mute
/    - slide down                               
\    - slide up				        
~    - hold note                                 
x    - pause
()   - harmonics

*Tunning: Db, Ab, Db, Gb, Bb, Eb*


Intro   (let lead start off with 2 riffs then come in with this)
eb|-----------------------------------|
Bb|-----------------------------------|
Gb|-----------------------------------|
Db|--1--0--0--0--1--0--0--0--1--0--3--|
Ab|--1--0--0--0--1--0--0--0--1--0--3--| 
Db|--1--0--0--0--1--0--0--0--1--0--3--|
pm   .  .  .  .  .  .  .  .  .  .  .

eb|------------------------------|
Bb|------------------------------|
Gb|------------------------------|
Db|--1--0--0--0--1--0--0--0--1x--|
Ab|--1--0--0--0--1--0--0--0--1x--| 
Db|--1--0--0--0--1--0--0--0--1x--|
pm   .  .  .  .  .  .  .  .  .

eb|------------------------------------------------------------------------|
Bb|------------------------------------------------------------------------|
Gb|------------------------------------------------------------------------|
Db|--1--0--0--0--1--0--0--0--1--0--3------1--0--0--0--1--0--0--0--1--0--3--|
Ab|--1--0--0--0--1--0--0--0--1--0--3------1--0--0--0--1--0--0--0--1--0--3--|
Db|--1--0--0--0--1--0--0--0--1--0--3------1--0--0--0--1--0--0--0--1--0--3--|

eb|---------------------------------------------------------------------|
Bb|---------------------------------------------------------------------|
Gb|---------------------------------------------------------------------|
Db|--1--0--0--0--1--0--0--0--1--0--3------1--0--0--0--1--0--0--3--2--1--|
Ab|--1--0--0--0--1--0--0--0--1--0--3------1--0--0--0--1--0--0--3--2--1--|
Db|--1--0--0--0--1--0--0--0--1--0--3------1--0--0--0--1--0--0--3--2--1--|

eb|--------------------------------------------------------------|
Bb|--------------------------------------------------------------|
Gb|--------------------------------------------------------------|
Db|--1--0--0--0--1--0--0--0--1x------1--0--0--0--1--0--0--0--1x--|
Ab|--1--0--0--0--1--0--0--0--1x------1--0--0--0--1--0--0--0--1x--|
Db|--1--0--0--0--1--0--0--0--1x------1--0--0--0--1--0--0--0--1x--|

eb|----------------------------------------------------------------------|
Bb|----------------------------------------------------------------------|
Gb|----------------------------------------------------------------------|
Db|--1--0--0--0--1--0--0--0--1x------1--0--0--0--1--0--0--3--2--1----0~--|
Ab|--1--0--0--0--1--0--0--0--1x------1--0--0--0--1--0--0--3--2--1----0~--|
Db|--1--0--0--0--1--0--0--0--1x------1--0--0--0--1--0--0--3--2--1----0~--|

Verse
eb|------------------------------------------------------------------------|
Bb|------------------------------------------------------------------------|
Gb|------------------------------------------------------------------------|
Db|---1--0--0--0--1--0--0--0--1--0--3-----1--0--0--0--1--0--0--0--1--0--3--|
Ab|---1--0--0--0--1--0--0--0--1--0--3-----1--0--0--0--1--0--0--0--1--0--3--| x4
Db|---1--0--0--0--1--0--0--0--1--0--3-----1--0--0--0--1--0--0--0--1--0--3--|
pm    .  .  .  .  .  .  .  .  .  .  .     .  .  .  .  .  .  .  .  .  .  .

Pre-Chorus
eb|-----------------------------------------------------------------------------|
Bb|-----------------------------------------------------------------------------|
Gb|-----------------------------------------------------------------------------|
Db|--5--5--5--5--3--5--5--5--5--6--5--5--5--5--3--6--6--6--6--6--8--8--8--6--6--|
Ab|--5--5--5--5--3--5--5--5--5--6--5--5--5--5--3--6--6--6--6--6--8--8--8--6--6--| x2
Db|--5--5--5--5--3--5--5--5--5--6--5--5--5--5--3--6--6--6--6--6--8--8--8--6--6--|

Chorus
eb|----------------------------------------------------------------------|
Bb|----------------------------------------------------------------------|
Gb|-------------------2-2-2-2-2-2-2-2-------------------2-2-2-2-2-2-2-2--|
Db|--0-0-0-0-0-0-0-0--2-2-2-2-2-2-2-2--0-0-0-0-0-0-0-0--2-2-2-2-2-2-2-2--|
Ab|--0-0-0-0-0-0-0-0--0-0-0-0-0-0-0-0--0-0-0-0-0-0-0-0--0-0-0-0-0-0-0-0--|
Db|--0-0-0-0-0-0-0-0-------------------0-0-0-0-0-0-0-0-------------------|

eb|----------------------------------------------------------------|
Bb|----------------------------------------------------------------|
Gb|--3-3-3-3-3-3-3-3-3-3---------------3-3-3-3-3-3-3-3-3-3---------|
Db|--3-3-3-3-3-3-3-3-3-3--3-3-3-3-3-3--1-1-1-1-1-1-1-1-1-1-----0~--|
Ab|--1-1-1-1-1-1-1-1-1-1--3-3-3-3-3-3--1-1-1-1-1-1-1-1-1-1-----0~--|
Db|-----------------------3-3-3-3-3-3--1-1-1-1-1-1-1-1-1-1-----0~--|

Verse
eb|------------------------------------------------------------------------|
Bb|------------------------------------------------------------------------|
Gb|------------------------------------------------------------------------|
Db|---1--0--0--0--1--0--0--0--1--0--3-----1--0--0--0--1--0--0--0--1--0--3--|
Ab|---1--0--0--0--1--0--0--0--1--0--3-----1--0--0--0--1--0--0--0--1--0--3--| x4
Db|---1--0--0--0--1--0--0--0--1--0--3-----1--0--0--0--1--0--0--0--1--0--3--|
pm    .  .  .  .  .  .  .  .  .  .  .     .  .  .  .  .  .  .  .  .  .  .

Pre-Chorus
eb|-----------------------------------------------------------------------------|
Bb|-----------------------------------------------------------------------------|
Gb|-----------------------------------------------------------------------------|
Db|--5--5--5--5--3--5--5--5--5--6--5--5--5--5--3--6--6--6--6--6--8--8--8--6--6--|
Ab|--5--5--5--5--3--5--5--5--5--6--5--5--5--5--3--6--6--6--6--6--8--8--8--6--6--|  x2
Db|--5--5--5--5--3--5--5--5--5--6--5--5--5--5--3--6--6--6--6--6--8--8--8--6--6--|

Chorus
eb|----------------------------------------------------------------------|
Bb|----------------------------------------------------------------------|
Gb|-------------------2-2-2-2-2-2-2-2-------------------2-2-2-2-2-2-2-2--|
Db|--0-0-0-0-0-0-0-0--2-2-2-2-2-2-2-2--0-0-0-0-0-0-0-0--2-2-2-2-2-2-2-2--|
Ab|--0-0-0-0-0-0-0-0--0-0-0-0-0-0-0-0--0-0-0-0-0-0-0-0--0-0-0-0-0-0-0-0--|
Db|--0-0-0-0-0-0-0-0-------------------0-0-0-0-0-0-0-0-------------------|

eb|---------------------------------------------------------|
Bb|---------------------------------------------------------|
Gb|--3-3-3-3-3-3-3-3-3-3---------------3-3-3-3-3-3-3-3-3-3--|
Db|--3-3-3-3-3-3-3-3-3-3--3-3-3-3-3-3--1-1-1-1-1-1-1-1-1-1--|
Ab|--1-1-1-1-1-1-1-1-1-1--3-3-3-3-3-3--1-1-1-1-1-1-1-1-1-1--|
Db|-----------------------3-3-3-3-3-3--1-1-1-1-1-1-1-1-1-1--|

eb|----------------------------------------------------------------------|
Bb|----------------------------------------------------------------------|
Gb|-------------------2-2-2-2-2-2-2-2-------------------2-2-2-2-2-2-2-2--|
Db|--0-0-0-0-0-0-0-0--2-2-2-2-2-2-2-2--0-0-0-0-0-0-0-0--2-2-2-2-2-2-2-2--|
Ab|--0-0-0-0-0-0-0-0--0-0-0-0-0-0-0-0--0-0-0-0-0-0-0-0--0-0-0-0-0-0-0-0--|
Db|--0-0-0-0-0-0-0-0-------------------0-0-0-0-0-0-0-0-------------------|

eb|----------------------------------------------------|
Bb|----------------------------------------------------|
Gb|--3-3-3-3-3-3-3-3-3-3---------------3-3-3-3-3-3-3x--|
Db|--3-3-3-3-3-3-3-3-3-3--3-3-3-3-3-3--1-1-1-1-1-1-1x--|
Ab|--1-1-1-1-1-1-1-1-1-1--3-3-3-3-3-3--1-1-1-1-1-1-1x--|
Db|-----------------------3-3-3-3-3-3--1-1-1-1-1-1-1x--|

Breakdown
eb|--------------------------------------------------------------|
Bb|--------------------------------------------------------------|
Gb|--------------------------------------------------------------|
Db|--1--0--0--0--1--0--0--0--1x------1--0--0--0--1--0--0--0--1x--|
Ab|--1--0--0--0--1--0--0--0--1x------1--0--0--0--1--0--0--0--1x--| x4
Db|--1--0--0--0--1--0--0--0--1x------1--0--0--0--1--0--0--0--1x--|

Chorus
eb|----------------------------------------------------------------------|
Bb|----------------------------------------------------------------------|
Gb|-------------------2-2-2-2-2-2-2-2-------------------2-2-2-2-2-2-2-2--|
Db|--0-0-0-0-0-0-0-0--2-2-2-2-2-2-2-2--0-0-0-0-0-0-0-0--2-2-2-2-2-2-2-2--|
Ab|--0-0-0-0-0-0-0-0--0-0-0-0-0-0-0-0--0-0-0-0-0-0-0-0--0-0-0-0-0-0-0-0--|
Db|--0-0-0-0-0-0-0-0-------------------0-0-0-0-0-0-0-0-------------------|

eb|---------------------------------------------------------|
Bb|---------------------------------------------------------|
Gb|--3-3-3-3-3-3-3-3-3-3---------------3-3-3-3-3-3-3-3-3-3--|
Db|--3-3-3-3-3-3-3-3-3-3--3-3-3-3-3-3--1-1-1-1-1-1-1-1-1-1--|
Ab|--1-1-1-1-1-1-1-1-1-1--3-3-3-3-3-3--1-1-1-1-1-1-1-1-1-1--|
Db|-----------------------3-3-3-3-3-3--1-1-1-1-1-1-1-1-1-1--|

eb|----------------------------------------------------------------------|
Bb|----------------------------------------------------------------------|
Gb|-------------------2-2-2-2-2-2-2-2-------------------2-2-2-2-2-2-2-2--|
Db|--0-0-0-0-0-0-0-0--2-2-2-2-2-2-2-2--0-0-0-0-0-0-0-0--2-2-2-2-2-2-2-2--|
Ab|--0-0-0-0-0-0-0-0--0-0-0-0-0-0-0-0--0-0-0-0-0-0-0-0--0-0-0-0-0-0-0-0--|
Db|--0-0-0-0-0-0-0-0-------------------0-0-0-0-0-0-0-0-------------------|

eb|---------------------------------------------------------|
Bb|---------------------------------------------------------|
Gb|--3-3-3-3-3-3-3-3-3-3---------------3-3-3-3-3-3-3-3-3-3--|
Db|--3-3-3-3-3-3-3-3-3-3--3-3-3-3-3-3--1-1-1-1-1-1-1-1-1-1--|
Ab|--1-1-1-1-1-1-1-1-1-1--3-3-3-3-3-3--1-1-1-1-1-1-1-1-1-1--|
Db|-----------------------3-3-3-3-3-3--1-1-1-1-1-1-1-1-1-1--|

Ending   (let lead start off with 2 riffs then come in with this)
eb|-----------------------------------|
Bb|-----------------------------------|
Gb|-----------------------------------|
Db|--1--0--0--0--1--0--0--0--1--0--3--|
Ab|--1--0--0--0--1--0--0--0--1--0--3--| 
Db|--1--0--0--0--1--0--0--0--1--0--3--|
pm   .  .  .  .  .  .  .  .  .  .  .

eb|------------------------------|
Bb|------------------------------|
Gb|------------------------------|
Db|--1--0--0--0--1--0--0--0--1x--|
Ab|--1--0--0--0--1--0--0--0--1x--| 
Db|--1--0--0--0--1--0--0--0--1x--|
pm   .  .  .  .  .  .  .  .  .

eb|-------------------------------------------------------------------|
Bb|-------------------------------------------------------------------|
Gb|-------------------------------------------------------------------|
Db|--1--0--0--0--1--0--0--0--1--0--3------1--0--0--0--1--0--0--0--1x--|
Ab|--1--0--0--0--1--0--0--0--1--0--3------1--0--0--0--1--0--0--0--1x--| x3
Db|--1--0--0--0--1--0--0--0--1--0--3------1--0--0--0--1--0--0--0--1x--|

eb|-------------------------------------------------------------------------|
Bb|-------------------------------------------------------------------------|
Gb|-------------------------------------------------------------------------|
Db|--1--0--0--0--1--0--0--0--1--0--3------1--0--0--0--0--1--0--3--2--1--0~--|
Ab|--1--0--0--0--1--0--0--0--1--0--3------1--0--0--0--0--1--0--3--2--1--0~--|
Db|--1--0--0--0--1--0--0--0--1--0--3------1--0--0--0--0--1--0--3--2--1--0~--|
            
Submit corrections

comments powered by Disqus
↑ Back to top | Alpha Drive Tabs for Out Of Reach. Lyrics for acoustic guitar and electric guitar. 1 Tablatures and chords are parodies/interpretations of the original songs. You may use it for private study, scholarship, research or language learning purposes only