>
 >
Soulshine

Soulshine Bass Tabs

Allman Brothers - Soulshine chords, tabs, tablatures, lyrics

Guitar lessons | Add/correct | Request | Top 50 tabs Artists:  A B C D E F G H I J K L M N O P Q R S T U V W X Y Z 0-9

Soulshine Bass Tabs – Allman Brothers

CD, Sheet music, Poster

Do you like Soulshine? Share with your friends now
Bass TabsChordsTabsTabs v2Tabs v3
allman_brothers_band/soulshine.btab

Basstab by Jan Bjorklund, Finland; 
You are welcome to request for basstabs!
Bienvenidos a pedirme transcripciones para el bajo!


TablEdited by Jan Bjorklund for Josh
Tuning : B E A D G 	Time Signature: 4/4

 |       |       |       |        |       |       |       |        
|--------------------------------|--------------------------------|
|--------------------------------|--------------------------------|
|1---------------1---1---------1-|--------------------------------|
|--------------1-----------------|1-------------0-1---1-----------|
|--------------------------------|--------------------------------|

 |       |       |       |        |       |       |       |        
|--------------------------------|--------------------------------|
|--------------------------------|--------------------------------|
|--------------------------------|1---1-------------1-------------|
|3---------------4---------------|--------------------3---1---3---|
|--------------------------------|--------------------------------|

 |       |       |       |        |       |       |       |        
|--------------------------------|--------------------------------|
|----------------0-0---0-1---2---|3---------------3---------------|
|1---1---------1-----------------|--------------------------------|
|--------------------------------|----1---------------------------|
|--------------------------------|--------------------------------|

 |       |       |       |        |       |       |       |        
|--------------------------------|--------------------------------|
|--------------------------------|--------------------------------|
|--------------------------------|1-----------------1-------------|
|3---------------4---------------|--------------------3---1---3---|
|--------------------------------|--------------------------------|

 When you|can't find...  |        |       |       |       |        
|--------------------------------|--------------------------------|
|----------------3---3---------3-|1-------------------------------|
|1-------------------------------|----------------1---1-------0---|
|--------------------------------|--------------3-----------1---1-|
|--------------------------------|--------------------------------|

 |       |       |       |        |       |       |       |        
|--------------------------------|--------------------------------|
|--------------1-3---3---------3-|1---1---------------------------|
|1---1---------------------------|------------1-------------------|
|--------------------------------|------------------------3-----3-|
|--------------------------------|--------------------------------|

 |       |       |       |        |       |       |       |        
|--------------------------------|--------------------------------|
|----------0-1-2-3---3---------0-|1---1---------------------------|
|1---1---------------------------|--------------0-1---1-----------|
|--------------------------------|------------------------3---1---|
|--------------------------------|--------------------------------|

 |       |       |       |        |       |       |       |        
|--------------------------------|--------------------------------|
|----------------3---------------|--------------------------------|
|1---1---------------------------|--------------------------------|
|--------------1-----------------|3-------3-----3-4---4---4---5---|
|--------------------------------|--------------------------------|

 |       |       |       |        |       |       |       |        
|--------------------0-3-0-------|--------------------------------|
|----------------0-3-------3-0---|3---3---0---0-----------3---1---|
|1---1---1---1-3-----------------|----------------3---3-----------|
|--------------------------------|--------------------------------|
|--------------------------------|--------------------------------|

 |       |       |       |        |       |       |       |        
|--------------------------------|--------------------------------|
|1---1-----------------------1---|--------------------------------|
|--------3---3---1---1---3-------|1---1-----------------------3---|
|--------------------------------|--------3---3---1---1---3-------|
|--------------------------------|--------------------------------|

 |       |       |       |        |       |       |       |        
|--------------------------------|--------------------------------|
|----------------0-0---0-1---2---|3-------------------------------|
|1---1---------1-----------------|--------------------------------|
|--------------------------------|----1---------0-1---1-------0---|
|--------------------------------|--------------------------------|

 |       |       |       |        |       |       |       |        
|--------------------------------|------------------3-0-----------|
|--------------------------------|------------------------3-0-----|
|--------------------------------|1---1-----------------------3---|
|3---------------4---------------|--------------------------------|
|--------------------------------|--------------------------------|

 |       |       |       |        |       |       |       |        
|--------------------------------|--------------------------3-0---|
|----------0-1-2-3---3---------0-|1---1---------0---------------3-|
|1---1---------------------------|----------------1---1-----------|
|--------------------------------|--------------------------------|
|--------------------------------|--------------------------------|

 |       |       |       |        |       |       |       |        
|--------------------------------|------------------------0-3-----|
|--------------1-3---3---------3-|1---1-----------------3---------|
|1---1---------------------------|------------1-----3/4-----------|
|--------------------------------|--------------------------------|
|--------------------------------|--------------------------------|

 |       |       |       |        |       |       |       |        
|--------------------------------|--------------------0-----------|
|--------0-1---2-3---------------|1---1-------------------3-------|
|1---1---------------------------|----------------1---------5/4---|
|------------------0-1-----------|------------3-------------------|
|--------------------------------|--------------------------------|

 |       |       |       |        |       |       |       |        
|--------------------------------|--------------------------------|
|--------------1-3---3-----------|--------------------------------|
|1---1---------------------------|--------------------------------|
|--------------------------------|3-------3-------4---4---4---5---|
|--------------------------------|--------------------------------|

 |       |       |       |        |       |       |       |        
|--------------------------------|--------------------------------|
|--------------------------------|--------3-------3-3-0-------3---|
|1---1---1---1---1---1---1---1---|------------------------3-------|
|--------------------------------|1---1---------------------------|
|--------------------------------|--------------------------------|

 |       |       |       |        |       |       |       |        
|--------------------------------|------------------3-0-----------|
|1---1-----------------------1---|--------------1h3-------3-0-0---|
|--------3---3---1---1---0-------|1---1---1---------------------3-|
|--------------------------------|--------------------------------|
|--------------------------------|--------------------------------|

 |       |       |       |        |       |       |       |        
|--------------------------------|--------------------------------|
|----------------0-0---0-1---2---|3-------3-------3-------3-------|
|1---1---------1-----------------|--------------------------------|
|--------------------------------|----1---------1-----1-------1---|
|--------------------------------|--------------------------------|

 |       |       |       |        |       |       |       |        
|--------------------------------|------------------------3-------|
|--------------------------------|----------------------------3---|
|--------------------------------|1---1---1---1---1---1-----1-----|
|3-------3-------4-------4---5---|--------------------------------|
|--------------------------------|--------------------------------|

 |       |       |       |        |       |       |       |        
|--------------------------------|--------------------------------|
|--------------------------------|1---1---------------------------|
|--------------------------------|--------3---3---1---1---3---1---|
|3---3---3---3---3---3---1---1---|--------------------------------|
|--------------------------------|--------------------------------|

 |       |       |       |        |       |       |       |        
|--------------------------------|--------------------------------|
|1---1-------------------1---1---|--------------------------------|
|--------3---3---1---1-----------|1---1-------------------1---3---|
|--------------------------------|--------3---3---1---1-----------|
|--------------------------------|--------------------------------|

 |       |       |       |        |       |       |       |        
|--------------------------------|--------------------------------|
|--------------------------------|1---1-------------------1---1---|
|5---5---5---5---5---5---5---5---|--------3---3---1---1-----------|
|--------------------------------|--------------------------------|
|--------------------------------|--------------------------------|

 |       |       |       |        |       |       |       |        
|--------------------------------|--------------------------------|
|--------------------------------|--------------------------------|
|--------------------------------|------------------------3---2---|
|4---4---4---4---4---4---3---2---|1---1---1---1---1---1-----------|
|--------------------------------|--------------------------------|

 |       |       |       |        |       |       |       |        
|--------------------------------|--------------------------------|
|--------------------------------|3---3-----------3---3-------1---|
|1---1---1-------1---1-----------|--------------3-----------0---3-|
|--------------1-----------------|--------------------------------|
|--------------------------------|--------------------------------|

 |       |       |       |        |       |       |       |        
|--------------------------------|------------------3-------------|
|1---1-------------------1---1---|--------------1h3---5---3-------|
|--------3---3---1---1-----------|1---1---------------------5-3p--|
|--------------------------------|--------------------------------|
|--------------------------------|--------------------------------|

 |       |       |       |        |       |       |       |        
|--------------------------------|--------------------------------|
|----------------0-0---0-1---2---|3---3---------3---------3-------|
|1---1---------1-----------------|--------------------------------|
|--------------------------------|----------------1---1-------1---|
|--------------------------------|--------------------------------|

 |       |       |       |        |       |       |       |        
|--------------------------------|--------------------------------|
|--------------------------------|--------------------------------|
|--------------------------------|1---1-----------1---1---1-------|
|3---3---3-------4---4---4-------|--------------------------------|
|--------------------------------|--------------------------------|

 |       |       |       |        |       |       |       |        
|--------------------------------|--------------------------------|
|--------------------------------|1---1---------------------------|
|--------------------------------|--------3---3---1---1---3---1---|
|3---3---3---3---3---3---3---3---|--------------------------------|
|--------------------------------|--------------------------------|

 |       |       |       |        |       |       |       |        
|--------------------------------|--------------------------------|
|1---1-------------------1---1---|--------------------------------|
|--------3---3---1---1-----------|1---1-------------------1---3---|
|--------------------------------|--------3---3---1---1-----------|
|--------------------------------|--------------------------------|

 |       |       |       |        |       |       |       |        
|--------------------------------|--------------------------------|
|--------------------------------|1---1-------------------1---1---|
|4---5---4---5---4---5---4---5---|--------3---3---1---1-----------|
|--------------------------------|--------------------------------|
|--------------------------------|--------------------------------|

 |       |       |       |        |       |       |       |        
|--------------------------------|--------------------------------|
|--------------------------------|--------------------------------|
|--------3---3-3-4---4---6-------|----------------------------3---|
|4---4-----------------------4/3-|1---1---1---1---1---1---1-------|
|--------------------------------|--------------------------------|

 |       |       |       |        |       |       |       |        
|--------------------------------|--------------------------------|
|--------------------------------|------------------------3---2---|
|1---1---1---1---1---1---1---1---|--------------------------------|
|--------------------------------|1---1---1---1---1---1-----------|
|--------------------------------|--------------------------------|

 |       |       |       |        |       |       |       |        
|--------------------------------|------------------------0-------|
|1---1-------------------1---1---|------------------0---3---3-----|
|--------3---3---1---1-----------|1---1-----------1-----------5/3-|
|--------------------------------|--------3---3-------------------|
|--------------------------------|--------------------------------|

 |       |       |       |        |       |       |       |        
|--------------------------------|--------------------------------|
|----------------0-----0-1---2---|3---3-----------3---3-0---------|
|1---1---1---1-------------------|------------------------3-------|
|--------------------------------|----------------------------1---|
|--------------------------------|--------------------------------|

 |       |       |       |        |       |       |       |        
|--------------------------------|--------------------------------|
|--------------------------------|--------------------------------|
|--------------------------------|1---1---------1-1---1---1-------|
|3-------3-------4---4---4-------|----------------------------0---|
|--------------------------------|--------------------------------|

 |       |       |       |        |       |       |       |        
|--------------------------------|--------------------------------|
|----------------3---3---3---2---|1---1-------------------1---1---|
|--------------------------------|--------3---3---1---1-----------|
|1---1---------1-----------------|--------------------------------|
|--------------------------------|---------and so on...-----------|





Comments


Popular Allman Brothers tabs & chords
In Memory Of Elizabeth Reed 1 Bass Tabs
Stormy Monday 1 Bass Tabs
Blue Sky Chords
In Memory Of Elizabeth Reed Tabs
Jelly Jelly Tabs
Melissa Tabs
One Way Out 1 Tabs
Pony Boy 1 Tabs
Whippin Post Tabs
Whippin Post 2 Tabs


Song lyrics



↑ Back to top | Tablatures and chords are parodies/interpretations of the original songs. You may use it for private study, scholarship, research or language learning purposes only
© 2014 AZChords.com Contact us | Privacy policy | DMCA | Add/correct tabs | Request tabs | Top 50 tabs