» » »

Allman Brothers, Soulshine Tabs (ver.2)

Artists:  A B C D E F G H I J K L M N O P Q R S T U V W X Y Z # 

Soulshine Tabs (ver.2)

Allman Brothers Tabs
 Rating:
4/5 (4 votes)
Soulshine lessons Tabs too difficult? Try these video lessons and learn fast
1
                

have fun

--------------------------------------------------
------3-3-5^---6------------3-3-5-8^--------------
--3h5--------8---8-6-6--3h5----------3------3-----
--------------------------------------5-----------
----------------------------------------4s5-------
--------------------------------------------------
riff #1

---------------11---------------------------16^--13-----------
----11-13^--16----15-13-13-----11-11--11h13---------14-11-11--
-12------------------------s12--------------------------------
--------------------------------------------------------------
--------------------------------------------------------------
--------------------------------------------------------------

this is in the key of A# blues. Uh, the chord progession is as follows:

A#-F-D#-F
            
Submit corrections

comments powered by Disqus
↑ Back to top | Allman Brothers Tabs for Soulshine. Lyrics for acoustic guitar and electric guitar. 1 Tablatures and chords are parodies/interpretations of the original songs. You may use it for private study, scholarship, research or language learning purposes only