>
 >
In Memory Of Elizabeth Reed

In Memory Of Elizabeth Reed Guitar Tabs

Allman Brothers - In Memory Of Elizabeth Reed chords, tabs, tablatures, lyrics

Guitar lessons | Add/correct | Request | Top 50 tabs Artists:  A B C D E F G H I J K L M N O P Q R S T U V W X Y Z 0-9

In Memory Of Elizabeth Reed Guitar Tabs – Allman Brothers

CD, Sheet music, Poster

Do you like In Memory Of Elizabeth Reed? Share with your friends now
Tabs
This is the tab for the version of Liz Reed from Idlewild South, 
not Fillmore East.
In Memory of Elizabeth Reed 
Copyright 1970 by Richard Forrest Betts
*******************
Guitar 1
Guitar 2
Organ
*******************


E||--12-----5----------|--12-----10----------|--12-----5----------|
B||--12-----5----------|--12-----12----------|--12-----5----------|
G||--12-----5----------|--12-----11----------|--12-----5----------|
D||---------------------|----------------------|---------------------|
A||---------------------|----------------------|---------------------|
E||---------------------|----------------------|---------------------|

E||--7------0-----------|--7------2------------|--7------5-----------|
B||--8------1-----------|--8------3------------|--8------5-----------|
G||--9------2-----------|--9------4------------|--9------5-----------|
D||---------------------|----------------------|---------------------|
A||---------------------|----------------------|---------------------|
E||---------------------|----------------------|---------------------|

E||--------------------|-----------------------|---------------------|
B||--------------------|-----------------------|---------------------|
G||--------------------|-----------------------|---------------------|
D||--------------------|-----------------------|---------------------|
A||--------------------|-----------------------|---------------------|
E||--------------------|-----------------------|---------------------|

************************************************************************

--12-----10----------|--12-----5----------|--12-----10--------------|
--12-----12----------|--12-----5----------|--12-----12----------8---|
--12-----11----------|--12-----5----------|--12-----11----7/9-------|
----------------------|---------------------|--------------------------|
----------------------|---------------------|--------------------------|
----------------------|---------------------|--------------------------|


--7------2------------|--7------5-----------|--7------7------------|
--8------3------------|--8------5-----------|--8------7--------8---|
--9------4------------|--9------5-----------|--9------7----9-------|
----------------------|---------------------|----------------------|
----------------------|---------------------|----------------------|
----------------------|---------------------|----------------------|


----------------------|-------------------||---7------0----------|
----------------------|-------------------||---8------1----------|
----------------------|-------------------||*--9------2----------|
----------------------|-------------------||*--------------------|
----------------------|-------------------||---------------------|
----------------------|-------------------||---------------------|

************************************************************************

|----------------------|--------------------------|-------------------|
|---8h10~--------------|--------8--8/10p--8-------|-------------------|
|*---------------------|----------------------9p7-|--9~---------------|
|*---------------------|--------------------------|-------------------|
|----------------------|--------------------------|-------------------|
|----------------------|--------------------------|-------------------|

|----------------------|--------------------------|-------------------|
|---10~----------------|--------8--10---8---------|-------------------|
|*---------------------|--------------------9-7---|--9~---------------|
|*---------------------|--------------------------|-------------------|
|----------------------|--------------------------|-------------------|
|----------------------|--------------------------|-------------------|


----7------2-----------|--7------0----------------|--7------2---------|
----8------3-----------|--8------1----------------|--8------3---------|
----9------4-----------|--9------2----------------|--9------4---------|
-----------------------|--------------------------|-------------------|
-----------------------|--------------------------|-------------------|
-----------------------|--------------------------|-------------------|

************************************************************************

---------------------|----------------------|---------------------------|
-----------------8---|--10b-------10r-------|--8--------7----8----10----|
------------7/9------|----------------------|---------------------------|
---------------------|----------------------|---------------------------|
---------------------|----------------------|---------------------------|
---------------------|----------------------|---------------------------|

---------------------|----------------------|--------------------------|
-----------------8---|--12--------10--------|--7b-------7r---8----10---|
------------9--------|----------------------|--------------------------|
---------------------|----------------------|--------------------------|
---------------------|----------------------|--------------------------|
---------------------|----------------------|--------------------------|

--7------0-----------|--7---------2---------|--7--------0----------|
--8------1-----------|--8---------3---------|--8--------1----------|
--9------2-----------|--9---------4---------|--9--------2----------|
---------------------|----------------------|----------------------|
---------------------|----------------------|----------------------|
---------------------|----------------------|----------------------|

************************************************************************

--------------------|---------------------|----------------------|
--------------------|---------------------|----------------------|
--9------9r---------|--9-------------5----|--7/9-----7------4~---|
--------------------|-------------7-------|----------------------|
--------------------|---------------------|----------------------|
--------------------|---------------------|----------------------|

--------------------|---------------------|----------------------|
--------------------|---------------------|----------------------|
--9------9r---------|--9-------------5----|--7/9-----7------4~---|
--------------------|-------------7-------|----------------------|
--------------------|---------------------|----------------------|
--------------------|---------------------|----------------------|

--7------2----------|--7------2------2----|----------0------0----|
--8------3----------|--8------3------3----|----------1------1----|
--9------4----------|--9------4------4----|----------2------2----|
--------------------|---------------------|----------------------|
--------------------|---------------------|----------------------|
--------------------|---------------------|----------------------|

************************************************************************

------------------------|------------------------||---------------------|
------------------------|-------------------8----||--8/10---------------|
----5--7----4/5---------|-------------7/9-------*||---------------------|
--------------------5/7-|-----------------------*||---------------------|
------------------------|------7-----------------||---------------------|
------------------------|------------------------||---------------------|

------------------------|------------------------||---------------------|
------------------------|-------------------8----||--10----10r-----10---|
----5--7----4/5---------|-------------7/9-------*||---------------------|
--------------------5/7-|-----------------------*||---------------------|
------------------------|------7-----------------||---------------------|
------------------------|------------------------||---------------------|

------3----------------||------7------0-----------|--7------2----------|
------3----------------||------8------1-----------|--8------3----------|
------1---------------*||------9------2-----------|--9------4----------|
----------------------*||-------------------------|--------------------|
-----------------------||-------------------------|--------------------|
-----------------------||-------------------------|--------------------|

************************************************************************

-------------------------|-------------------|---------------------|
-----8--8/10-----8-------|-------------------|-----------------8---|
---------------------9-7-|--9~---------------|------------7/9------|
-------------------------|-------------------|---------------------|
-------------------------|-------------------|---------------------|
-------------------------|-------------------|---------------------|

-------------------------|-------------------|---------------------|
-----8----10-----8-------|-------------------|-----------------8---|
---------------------9-7-|--9~---------------|------------7/9------|
-------------------------|-------------------|---------------------|
-------------------------|-------------------|---------------------|
-------------------------|-------------------|---------------------|

-----7-----------0-------|--7--------2-------|--7---------0--------|
-----8-----------1-------|--8--------3-------|--8---------1--------|
-----9-----------2-------|--9--------4-------|--9---------2--------|
-------------------------|-------------------|---------------------|
-------------------------|-------------------|---------------------|
-------------------------|-------------------|---------------------|

************************************************************************

--10~-------8~-------|--7~-------------7----8----|-------------------|
---------------------|-----------10--------------|--8~---------------|
---------------------|---------------------------|-------------------|
---------------------|---------------------------|-------------------|
---------------------|---------------------------|-------------------|
---------------------|---------------------------|-------------------|

---------------------|---------------------------|-------------------|
--12~-------10~------|--7b-------7r----8----10---|-------------------|
---------------------|---------------------------|--9~---------------|
---------------------|---------------------------|-------------------|
---------------------|---------------------------|-------------------|
---------------------|---------------------------|-------------------|

--7---------2--------|--7--------0---------------|--7------2----------|
--8---------3--------|--8--------1---------------|--8------3----------|
--9---------4--------|--9--------2---------------|--9------4----------|
---------------------|---------------------------|--------------------|
---------------------|---------------------------|--------------------|
---------------------|---------------------------|--------------------|

************************************************************************

--------------------|----------------------|-----------------------|
--------------------|----------------------|-----------------------|
---------------5----|--7/9-----7------4~---|----5--7----7/9-----5--|
------------7-------|----------------------|-----------------------|
--------------------|----------------------|-----------------------|
--------------------|----------------------|-----------------------|

--------------------|----------------------|-----------------------|
--------------------|----------------------|-----------------------|
---------------5----|--7/9-----7------4~---|----5--7----7/9-----5--|
------------7-------|----------------------|-----------------------|
--------------------|----------------------|-----------------------|
--------------------|----------------------|-----------------------|

--7------2------2---|----------0------0----|----5-----------------|
--8------3------3---|----------1------1----|----6-----------------|
--9------4------4---|----------2------2----|----7-----------------|
--------------------|----------------------|----------------------|
--------------------|----------------------|----------------------|
--------------------|----------------------|----------------------|

************************************************************************

----------------------|--------------------------------|
----------------------|--------------------------------|
--------------4--5~---|--4-----------------------------|
------5/7~------------|---------5--------------5-------|
----------------------|----------------5/7--------7----|
----------------------|--------------------------------|

----------------------|--------------------------------|
----------------------|--------------------------------|
--------------4--5~---|--4-----------------------------|
------5/7~------------|---------5--------------5-------|
----------------------|----------------5/7--------7----|
----------------------|--------------------------------|

--7---7--------3------|--------------------|
--8---8--------3------|--------------------|
--9---9--------1------|--------------------|
----------------------|--------------------|
----------------------|--------------------|
----------------------|--------------------|

************************************************************************

-------------------8--11--8------||---------------------------------|
------------7--10------------10--||----------8----------------------|
---------8-----------------------||*-------9---7--9-----------------|
--7--10--------------------------||*--10-------------10--10-7-------|
---------------------------------||---------------------------10-7--|
---------------------------------||---------------------------------|

-------------------11--14-11-----||----------7----------------------|
------------10--13-----------13--||--------8---8--10--8~------------|
---------11----------------------||*---9-----------------9--7-------|
--10-13--------------------------||*--------------------------10-7--|
---------------------------------||---------------------------------|
---------------------------------||---------------------------------|

----------------------------------|-------------------------------||
----------------------------------|-------------------------------||
*-------9-------------------------|-----------9------------------*||
*----10---10--12-10--10-7---------|--------10---10--12--10~------*||
--12----------------------10-7----|---12--------------------------||
----------------------------------|-------------------------------||

************************************************************************

------------------------------------||----------------------------------------|
---------8--------------------------||----------11----------------------------|
-------9---7--9--------------------*||-------12----10--12-----------------12--|
--10-------------10~---------------*||--13-----------------13--13-10--13------|
------------------------------------||----------------------------------------|
------------------------------------||----------------------------------------|

---------7--------------------------||----------10----------------------------|
-------8---8------------------------||-------11----11--13--11-------------11--|
--9-----------10--9~---------------*||--12---------------------12-10--12------|
-----------------------------------*||----------------------------------------|
------------------------------------||----------------------------------------|
------------------------------------||----------------------------------------|

-------------------------------------|------------------------------|
-------------------------------------|------------------------------|
--------12------------------------12-|----------12------------------|
------13--13--15--13--13-10--13------|-------13----13--15--13~------|
--15---------------------------------|--15--------------------------|
-------------------------------------|------------------------------|

************************************************************************

------------------------------------|--------------------------------|
----------11------------------------|---------8----------------------|
-------12----10--12-----------------|-------9---7--9-----------------|
--13-----------------13~------------|--10-------------10--10-7-------|
------------------------------------|--------------------------10-7--|
------------------------------------|--------------------------------|

----------10------------------------|---------7----------------------|
-------11----11--13-----------------|-------8---8--10--8~------------|
--12-----------------12~------------|---9------------------9-7-------|
------------------------------------|--------------------------10-7--|
------------------------------------|--------------------------------|
------------------------------------|--------------------------------|

------------------------------------|--------------------------------|
------------------------------------|--------------------------------|
-----------9------------------------|---------9----------------------|
-------10----10--12--10--10-7-------|------10---10-12--10~-----------|
--12--------------------------10-7--|--12----------------------------|
------------------------------------|--------------------------------|

************************************************************************

--------------------------|----------------------------|-------------------------|
---------8----------------|--9----10--9----10--12--10--|--9---10--9---10---------|
-------9---7--9-----------|----------------------------|------------------8--9---|
--10-------------10~------|----------------------------|-------------------------|
--------------------------|----------------------------|-------------------------|
--------------------------|----------------------------|-------------------------|

---------7----------------|----------------------------|-------------------------|
-------8---8--------------|--8----9--8~---9--11p-9-----|--8h---9--8~---9---------|
--9-----------10--9~------|----------------------------|------------------9h-10--|
--------------------------|----------------------------|-------------------------|
--------------------------|----------------------------|-------------------------|
--------------------------|----------------------------|-------------------------|

--7----8---7---8--10--8---|--7----8--7----8------------|--7----8--7----8--10--8--|
--------------------------|------------------9--10-----|-------------------------|
--------------------------|----------------------------|-------------------------|
--------------------------|----------------------------|-------------------------|
--------------------------|----------------------------|-------------------------|
--------------------------|----------------------------|-------------------------|

************************************************************************

----------------------------|----------------------------|
--9----10--9----10--12--10--|--9----10--9----10----------|
----------------------------|--------------------8---9---|
----------------------------|----------------------------|
----------------------------|----------------------------|
----------------------------|----------------------------|

----------------------------|----------------------------|
--8----9---8~----9--11p--9--|--8h----9--8~----9----------|
----------------------------|--------------------9h--10--|
----------------------------|----------------------------|
----------------------------|----------------------------|
----------------------------|----------------------------|

--7----8---7-----8----------|------------------|------------------|
---------------------9--10--|------------------|------------------|
----------------------------|------------------|------------------|
----------------------------|------------------|------------------|
----------------------------|------------------|------------------|
----------------------------|------------------|------------------|

************************************************************************

--5--3----------------------x-x-|------------------------------------|
--------7--5--4----------8~-x-x-|--12--x-x-12-12--12---12--10-10-10--|
-----------------4--5----7~-----|--12--x-x-12-12--11---11--9--9--9---|
-------------------------6~-----|--14--x-x-14-14--12---12--10-10-10--|
-------------------------7~-----|------------------------------------|
--------------------------------|------------------------------------|

--------------------------------|------------------------------------|
--5--4-------------------8~-----|----15b-----------------------------|
--------7--5--4----------7~-----|------------------------------------|
-----------------6--7-----------|------------------------------------|
-------------------------7~-----|------------------------------------|
--------------------------------|------------------------------------|

no organ part...

************************************************************************

------------------------------------|
--12--x-x-12-12--12--12--12-12--12--|
--12--x-x-12-12--11--11--11-11--11--|
--14--x-x-14-14--12--12--12-12--12--|
------------------------------------|
------------------------------------|

------------------------------------|
----------15b----15b-15b----15b-----|
------------------------------------|
------------------------------------|
------------------------------------|
------------------------------------|


************************************************************************

------------12-12---------------10--|----------12-12------10---12-12-x--|
--12--12-12-12-12--12---12--10------|--12------12-12--12--12---12-12-x--|
--12--12-12-12-12--11---11--9---12--|--12---12-12-12--11--11------------|
--14--14-14-14-14--12---12--10------|--14---14-14-14--12--12------------|
------------------------------------|-----------------------------------|
------------------------------------|-----------------------------------|

------------------------------------|----------------------|
--15r----12~------------------------|--15r------12~--------|
------------------------------------|----------------------| X2
------------------------------------|----------------------|
------------------------------------|----------------------|
------------------------------------|----------------------|

************************************************************************

------------------------------------|
--12--x-x-12-12--12---12--10-10-10--|
--12--x-x-12-12--11---11--9--9--9---| Repeat previous guitar 1 parts
--14--x-x-14-14--12---12--10-10-10--| througout solo
------------------------------------|
------------------------------------|

------------------------------------|----------------------|--------------------|
-----12r----------------------------|-----12r--------------|--------------------|
--------------14~-------------------|----------------------|--------------------|
------------------------------------|--------------13~-----|------14~-----------|
------------------------------------|----------------------|--------------------|
------------------------------------|----------------------|--------------------|

************************************************************************

-----------------------|------------------5------|-------------------------|
-----------5-----------|-------------8-------8~--|--x--------5-5-----------|
----7b-------7--5--7~--|--x-x-7b-------7---------|-----7b--------7--5--7~--|
-----------------------|-------------------------|-------------------------|
-----------------------|-------------------------|-------------------------|
-----------------------|-------------------------|-------------------------|

************************************************************************ 

-----------------------------|----------------------------|
-----------------------------|----------------------------|
--x--------------5-54~---5--|----------------5-54~---5--|
-----7-7-7-7-7-7-------------|----7-7-7-7-7-7-------------|
-----------------------------|----------------------------|
-----------------------------|----------------------------|

************************************************************************

----------------------------|----------------------------|
----------------------------|----------------------------|
----------------5-54~---5--|----------------5-54~---5--|
----7-7-7-7-7-7-------------|----7-7-7-7-7-7-------------|
----------------------------|----------------------------|
----------------------------|----------------------------|

************************************************************************

----------------------------|-------------------------------|
----------------5-54~---5--|----------------5-54~---------|
--------5-54---------------|--------5-54-----------5-54--|
----7-7-------x-------------|----7-7-------7-------7--------|
----------------------------|-------------------------------|
----------------------------|-------------------------------|

************************************************************************

---------------------------|---------------------|------------------|
---------------------------|---------------------|------------------|
--5h-6--5--4-5--4--2h4-----|--------------2-4----|------------------|
------------------------3~-|-------------------2~|------------------|
---------------------------|---------------------|------------------|
---------------------------|---------------------|------------------|

************************************************************************

---------------------5---------|------------------------------|
-------------------5---8-5---5-|------------------------------|
---------------5-7---------8b--|--8-7-5---5-7-----------------|
--7-7--7--7--7-----------------|--------7------7--5~---5-5-5--|
--7----------------------------|---------------------7--------|
-------------------------------|------------------------------|

**************************************************************************

------------------------------|-----------------------------|
------------------------------|------------------5--54--5--|
------------x-x-x-5--54-x-x--|--x--------5--54------------|
--x-5--54--------------------|----5--54-------------------|
------------------------------|-----------------------------|
------------------------------|-----------------------------|

**************************************************************************

-------------------------|-------------------------|
----------4~--5----4--5--|----------4~--5----4--5--|
--4~--5----------5-------|--4~--5----------5-------|
-------------------------|-------------------------|
-------------------------|-------------------------|
-------------------------|-------------------------|

**************************************************************************

--7--------------------------------|-------------------------|
--7p5p4-5--5--7p5p4-5--5--7p5p4-5--|----------4~--5----4--5--|
-----------------------------------|--4~--5----------5-------|
-----------------------------------|-------------------------|
-----------------------------------|-------------------------|
-----------------------------------|-------------------------|

**************************************************************************

------------------------------|---------5-------------5--x-x-|
--------5---------------------|-------5---8-5-------5--------|
--x-7b----7-5---5-7p5---5--7--|--x-7b----------x-7b----------|
--------------7-------7-------|------------------------------|
------------------------------|------------------------------|
------------------------------|------------------------------|

**************************************************************************

---------5-----------------------|----------------------------------|
--x----5---8p5---5---------5-----|------5---------5-----------------|
----7b---------8---8-7-5-7b--8-7-|--5-7b--8-7-5-7b--8-7-5---5-7p5---|
---------------------------------|------------------------7-------7-|
---------------------------------|----------------------------------|
---------------------------------|----------------------------------|

**************************************************************************

---------------------------------|------------------------5-------7-|
---------------------------------|----------------------5---8-5-8---|
-----------------5---------------|------5---5-7p5---5-7b------------|
--5-7--7-7-7-7-7---7-5---5-7p5---|--5-7---5-------7-----------------|
-----------------------7-------7-|----------------------------------|
---------------------------------|----------------------------------|

**************************************************************************

------5----7----5----7----5--|----7----5-7p5---5-7p5---5-7p5---|
----8----x----8----8----8----|--8----8-------8-------8-------8-|
--x--------------------------|---------------------------------|
-----------------------------|---------------------------------|
-----------------------------|---------------------------------|
-----------------------------|---------------------------------|

**************************************************************************

--5-7p5---5-7p5---5-7p5---5-7p5---|--5----8-----7---5-8p5---5----|
--------8-------8-------8-------8-|----8-----8------------8---8b-|
----------------------------------|---------------x--------------|
----------------------------------|------------------------------|
----------------------------------|------------------------------|
----------------------------------|------------------------------|

**************************************************************************

------5-------------------|---------5-----------------------|
--------8--5------5-------|-------5---5---5---5-------------|
--------------7b----7p5---|--5-7b-------7b--7b--8-7-5-------|
------------------------7-|---------------------------7-5-7-|
--------------------------|---------------------------------|
--------------------------|---------------------------------|

**************************************************************************

------------------------------------|--12---12-12-12-----------------|
--12--x-x-12-12--12---12--10-10-10--|--12---12-12-12-----------------|
--12--x-x-12-12--11---11--9--9--9---|--12---12-12-12--11-------------|
--14--x-x-14-14--12---12--10-10-10--|--14------14-14--12-------------|
------------------------------------|--------------------------------|
------------------------------------|--------------------------------|

------------------------------------|--------------------------------|
------------------------8---8---8---|--------------------------------|
-----------5---5-7b-------7b--7b----|--7r-5--------------------------|
--7~-7~------7----------------------|-------7-5------5---5-7p5---5-5-|
------------------------------------|-----------7--7---7-------7-----|
------------------------------------|--------------------------------|

**************************************************************************

------------------------|-----------------------|------------------------|
-------------4~----5~---|-------------5~--------|-------------5~---------|
------4-5-7-------------|------4-5-7------------|------4-5-7-------------|
--7---------------------|--7--------------------|--7---------------------|
------------------------|-----------------------|------------------------|
------------------------|-----------------------|------------------------|

------------------------|-----------------------|------------------------|
-------------4~----5~---|-------------5---------|-------------4~----5~---|
------4-5-7-7-----------|------4-5-7------------|------4-5-7-------------|
--7~--------------------|--7--------------------|--7---------------------|
------------------------|-----------------------|------------------------|
------------------------|-----------------------|------------------------|

**************************************************************************

|----------------------------------------|----11---11--10--10--7--7--11------|
|-------13-----13--12---12--10-10-10-10--|---------x-------------------------|
|*--12--12--12-12--11---11--9--9--9--9---|-----------------------------------|
|*--14------14-----12---12--10-10-10-10--|-----------------------------------|
|----------------------------------------|-----------------------------------|
|----------------------------------------|-----------------------------------|


|---12--12---x-12------------------------|--12--12-12-12-12------------------|
|---12--12---x-12--12---12--10-10--------|--12--12-12-12-12--12--12--x-10-10-|
|*--12--12-----12--11---11--9--9---------|--12--12-12-12-12--11--11--x-9--9--|
|*--14--14-----14--12---12--10-10--------|--14--14-14-14-14--12--12--x-10-10-|
|----------------------------------------|-----------------------------------|
|----------------------------------------|-----------------------------------|

**************************************************************************

----12--x-12--10-----10--8--8----|-------12---12--10--8--8-----5--5-----||
----------x---x------------------|--------------------------------------||
---------------------------------|-------------------------------------*||
---------------------------------|-------------------------------------*||
---------------------------------|--------------------------------------||
---------------------------------|--------------------------------------||

--12--12--12-12------------------|--12---12-12-12--------10-------------||
--12--12--12-12--12---x--10-10---|--12---12-12-12--12-12-12--x-10-10----||
--12--12--12-12--11---x--9--9----|--12---12-12-12--11-11-11----9--9----*||
--14--14--14-14--12------10-10---|--14---14-14-14--12-12-12----10-10---*||
---------------------------------|--------------------------------------||
---------------------------------|--------------------------------------||

******************************************************************************

----12---12--12---10---5--5-|----5---5-----10--7--7---|------------------------|
----------------------------|-----------0-------------|--------------12--------|
----------------------------|-------------------------|----9----11---12--------|
----------------------------|-------------------------|----10---12---14--------|
----------------------------|-------------------------|------------------------|
----------------------------|-------------------------|------------------------|

----------------------------|-------------------------|------------------------|
----8---10---12-------------|--12---10--8-------------|--------------12--------|
----9---11---12-------------|--12---11--9-------------|----9----11---12--------|
----10--12---14-------------|--14---12--10------------|----10---12---14--------|
----------------------------|-------------------------|------------------------|
----------------------------|-------------------------|------------------------|

**************************************************************************

------------------------|------------------------|--------------------------|
----12--------10--------|--------------12--------|----12--------------5--7--|
----12---11---9---------|----9----11---12--------|----12---11---9-----------|
----14---12---10--------|----10---12---14--------|----14---12---10----------|
------------------------|------------------------|--------------------------|
------------------------|------------------------|--------------------------|

------------------------|------------------------|------------------------|
----12--------10--------|--------------12--------|----12------------------|
----12---11---9---------|----9----11---12--------|----12---11---9---------|
----14---12---10--------|----10---12---14--------|----14---12---10--------|
------------------------|------------------------|------------------------|
------------------------|------------------------|------------------------|

**************************************************************************

----------------------------------------|------------------------------|
--7b---------8r---7---------------------|--8---5h----8p5~--------5--7--|
----------------------------------------|--------------------0---------|
----------------------------------------|------------------------------|
----------------------------------------|------------------------------|
----------------------------------------|------------------------------|

--12--12-12-12-12-----------------------|--12--12-12-12-12-------------------|
--12--12-12-12-12-8-12-12-12--x-10-10---|--12--12-12-12-12--12--12--10-10----|
--12--12-12-12-12-9-11-11-11--x-9--9----|--12--12-12-12-12--11--11-----------|
--14--14-14-14-14---12-12-12----10-10---|--14--14-14-14-14--12--12-----------|
----------------------------------------|------------------------------------|
----------------------------------------|------------------------------------|

**************************************************************************

-------------------------------------|-----------------------------|
--7b---8--8--7b-8--8-7b-8---8--8b--8-|--7--8---5~-----5~-----------|
-------------------------------------|-------------7---------5-7b--|
-------------------------------------|--------------------7--------|
-------------------------------------|-----------------------------|
-------------------------------------|-----------------------------|

--12--12-12-12-12--------------------|--12-12--12-12-12----------------------|
--12--12-12-12-12--x-12---x-10-10----|--12-12--12-12-12--12-12-12-12--10--x--|
--12--12-12-12-12--x-11-----9--9---x-|--12-12--12-12-12--11-11-11-11--9------|
--14--14-14-14-14----12-----10-10----|--14-14--14-14-14--12-12-12-12---------|
-------------------------------------|---------------------------------------|
-------------------------------------|---------------------------------------|

**************************************************************************

----------------------------|-------------------------|
----------------------------|----5--------------------|
---9-9-9-7r-5-7--5~-----5-7b|-------7r-5-7~-------5-7b|
----------------------7-----|-------------------7-----|
----------------------------|-------------------------|
----------------------------|-------------------------|

repeat guitar 2 parts throughout solo

**************************************************************************

------------------------------|-----------------------------|
---5----5----5----5-----------|------------5----------------|
-----7b---7b---7b---7r7p5-7p5-|--7p5-7p5-7----5~--------5-7b|
------------------------------|------------------7~---7-----|
------------------------------|-----------------------------|
------------------------------|-----------------------------|

**************************************************************************

---------------------------|------------------------------|
---5-----------------------|----------------------5---5---|
-----7b-7r-5-7--5~-----5-7-|--7b-7/9b-97p5-----5-5-5---5-|
---------------------7-----|----------------7-------------|
---------------------------|------------------------------|
---------------------------|------------------------------|

**************************************************************************

--------------------------------------|-------------------------|
--8p5---8p5---8p5---8p5---8b-8r---5-8b|---8b--8r-5------------7-|
------5-----5-----5-----5-------------|------------7~-----2/9---|
--------------------------------------|-------------------------|
--------------------------------------|-------------------------|
--------------------------------------|-------------------------|

**************************************************************************

--10p7-10p7-10p7------------------|--10p7-10p7-10p7---------------10~-|
-----------------10p7-8---------5-|-----------------10p7-8------------|
------------------------7~-7~-----|------------------------7~---7-----|
----------------------------------|-----------------------------------|
----------------------------------|-----------------------------------|
----------------------------------|-----------------------------------|

**************************************************************************

---7-10p7-10p7----------------------|---------------------------|
---------------10p7-7-8-10-------10-|---------------------------|
---------------------------7--9b----|--9~----97-x-5--7--5h7p5b-|
------------------------------------|---------------------------|
------------------------------------|---------------------------|
------------------------------------|---------------------------|

**************************************************************************

--------------------------|--------------------------|-------------------------|
--------------------------|--------------------------|-------------------------|
--------------------------|--------------------------|-------------------------|
--7~----5-7--5------------|--------------------------|------5------------------|
----------------75-------|--7~--7~--7~--5-7-x----3--|--7~------7---5--7-------|
--------------------8--5--|--------------------7-----|-------------------7--8--|

**************************************************************************

------------------------|------------------------|------------------------|
------------------------|------------------------|------------------------|
------------------------|----------4---5---7--4--|------------------4--5--|
---------------------4--|--5---7-----------------|------4---5---7---------|
----------4---5---7-----|------------------------|--7~--------------------|
--7---8-----------------|------------------------|------------------------|

**************************************************************************

------------------------|------------------------|-------------------------|
------5---8~--5---------|------------------------|----------6/8--7---------|
--7---------------7--5--|------------------7--5--|--4~---5-----------9--7--|
------------------------|------4---5---7---------|-------------------------|
------------------------|--7~--------------------|-------------------------|
------------------------|------------------------|-------------------------|

**************************************************************************

--10p7-10p7-10p7---------------x-x-|--10p7-10p7-10p7-10r----7-----x-x-|
-----------------10p7-8------------|--------------------------8-------|
------------------------7--7~------|----------------------------0-----|
-----------------------------------|----------------------------------|
-----------------------------------|----------------------------------|
-----------------------------------|----------------------------------|

**************************************************************************

--10p7-x--10p7-10p7-10p7-10p7-10p7--10b|---10b----10-8-10---8----10-8b--|
---------------------------------------|----------------------10--------|
---------------------------------------|------------------0-------------|
---------------------------------------|--------------------------------|
---------------------------------------|--------------------------------|
---------------------------------------|--------------------------------|

**************************************************************************

----------------8---------8--8b-|------------------------------8--|
--10---8-10p8---8------10-8--8b-|----10-8-10p8---------------8----|
--------------9----14--0--------|--------------9-7-7--2-5/9------|
--------------------------------|---------------------------------|
--------------------------------|---------------------------------|
--------------------------------|---------------------------------|

**************************************************************************

----------------8--------8--8b-|-------------------------0-12-|
--10---8-10p8---8--10--8-8--8b-|----10-8-10p8------------0-0--|
--------------9----------------|--------------9-7----4-------|
-------------------------------|------------------------------|
-------------------------------|------------------------------|
-------------------------------|------------------------------|

**************************************************************************

--15p12-15p12-15p12-15p12-15p12-15p12-15p12-15p12-|
--------------------------------------------------|
--------------------------------------------------|
--------------------------------------------------|
--------------------------------------------------|
--------------------------------------------------|

**************************************************************************

--15p12-15p12-15p12-15p12-15p12-15p12-15p12-15p12-15p|
-----------------------------------------------------|
-----------------------------------------------------|
-----------------------------------------------------|
-----------------------------------------------------|
-----------------------------------------------------|

**************************************************************************

--15p12-15-15p12-15-15p12-15-15p12-15-15p12-15-15p12-15-15p12-15-15p12-15-|

**************************************************************************

--15p12-15-15p12-15-15p12-15-15-15b-15b----15-|------------------------|
-----------------------------------------------|-------------4~----5~---|
-----------------------------------------------|------4-5-7-------------|
-----------------------------------------------|--7---------------------|
-----------------------------------------------|------------------------|
-----------------------------------------------|------------------------|

--12--12-12-12-12------------------------------|------------------------|
--12--12-12-12-12--12--12--10-10-12------------|-------------4~----5~---|
--12--12-12-12-12--11--11--------12-11---------|------4-5-7-------------|
--14--14-14-14-14--12--12----------------------|--7---------------------|
-----------------------------------------------|------------------------|
-----------------------------------------------|------------------------|


**************************************************************************

-----------------------|------------------------|----------------------------|
-------------5~--------|-------------4~----5~---|---------------4-5----------|
------4-5-7------------|------4-5-7-------------|------4-5-7--7------4-5-----|
--7--------------------|--7---------------------|--7---------------------7---|
-----------------------|------------------------|----------------------------|
-----------------------|------------------------|----------------------------|

-----------------------|------------------------|----------------------------|
-------------5~--------|-------------4~----5~---|---------------4-5----------|
------4-5-7------------|------4-5-7-------------|------4-5-7--7------4-5-----|
--7--------------------|--7---------------------|--7---------------------7---|
-----------------------|------------------------|----------------------------|
-----------------------|------------------------|----------------------------|

**************************************************************************

|---------------------------------|
|----------8----------------------|
|*-------9---7--9-----------------|
|*--10-------------10--10-7-------|
|---------------------------10-7--|
|---------------------------------|

|----------7----------------------|
|--------8---8--10--8~------------|
|*---9-----------------9--7-------|
|*--------------------------10-7--|
|---------------------------------|
|---------------------------------|

|---------------------------------|
|---------------------------------|
|*---------9----------------------|
|*------10--10--12--10-10-7-------|
|---12----------------------10-7--|
|---------------------------------|

**************************************************************************

---------------------------||----------------------------------------|
---------8-----------------||----------11----------------------------|
-------9---7--9-----------*||-------12----10--12-----------------12--|
--10-------------10~------*||--13-----------------13--13-10--13------|
---------------------------||----------------------------------------|
---------------------------||----------------------------------------|

---------7-----------------||----------10----------------------------|
-------8---8---------------||-------11----11--13--11-------------11--|
---9----------10--9~------*||--12---------------------12-10--12------|
--------------------------*||----------------------------------------|
---------------------------||----------------------------------------|
---------------------------||----------------------------------------|

---------------------------||----------------------------------------|
---------------------------||----------------------------------------|
---------9----------------*||----------12------------------------12--|
------10--10--12--10~-----*||-------13----13--15--13--13-10--13------|
--12-----------------------||--15------------------------------------|
---------------------------||----------------------------------------|

**************************************************************************

------------------------------|--------------------------------|
----------11------------------|---------8----------------------|
-------12----10--12-----------|-------9---7--9-----------------|
--13-----------------13~------|--10-------------10--10-7-------|
------------------------------|--------------------------10-7--|
------------------------------|--------------------------------|

----------10------------------|---------7----------------------|
-------11----11--13-----------|-------8---8-10--8~-------------|
--12-----------------12~------|---9------------------9-7-------|
------------------------------|--------------------------10-7--|
------------------------------|--------------------------------|
------------------------------|--------------------------------|

------------------------------|--------------------------------|
------------------------------|--------------------------------|
----------12------------------|---------9----------------------|
-------13----13--15--13~------|------10--10-12--10--10-7-------|
--15--------------------------|--12----------------------10-7--|
------------------------------|--------------------------------|

**************************************************************************

--------------------------|----------------------------|
---------8----------------|--9h---10--9~---10--12--10--|
-------9---7--9-----------|----------------------------|
--10-------------10~------|----------------------------|
--------------------------|----------------------------|
--------------------------|----------------------------|

---------7----------------|----------------------------|
-------8---8--------------|----------------------------|
---9---------10---9~------|--8~----9--8~---9---11--9---|
--------------------------|----------------------------|
--------------------------|----------------------------|
--------------------------|----------------------------|

--------------------------|--7-----8--7----8---10--8---|
--------------------------|----------------------------|
---------9----------------|----------------------------|
------10--10-12--10~------|----------------------------|
--12----------------------|----------------------------|
--------------------------|----------------------------|

**************************************************************************

---------------------------|----------------------------|
--9h---10--9~---10---------|--9h---10--9~---10--12--10--|
--------------------8--9---|----------------------------|
---------------------------|----------------------------|
---------------------------|----------------------------|
---------------------------|----------------------------|

---------------------------|----------------------------|
---------------------------|----------------------------|
--8h----9--8~----9---------|--8~----9--8~----9--9r------|
--------------------9h-10--|----------------------------|
---------------------------|----------------------------|
---------------------------|----------------------------|

--7-----8--7-----8---------|--7-----8--7-----8--10--8---|
--------------------9--10--|----------------------------|
---------------------------|----------------------------|
---------------------------|----------------------------|
---------------------------|----------------------------|
---------------------------|----------------------------| 


**************************************************************************

--------------------------|--------7---------------||
--9h---10--9~---10--------|------8---8--10---------||
--------------------8--9--|--9---------------------||
--------------------------|------------------------||
--------------------------|------------------------||
--------------------------|------------------------||

--------------------------|--------7---------------||
--------------------------|------8---8--10---------||
--8~----9--8~---9------5/-|--9---------------------||
--------------------9-----|------------------------||
--------------------------|------------------------||
--------------------------|------------------------||

--7-----8--7----8---------|------------------------||
--------------------9--10-|------------------------||
--------------------------|------------------------||
--------------------------|------------------------||
--------------------------|------------------------||
--------------------------|------------------------||





Comments


Popular Allman Brothers tabs & chords
In Memory Of Elizabeth Reed 1 Bass Tabs
Jelly Jelly Chords
Melissa Chords
Blue Sky Tabs
Les Brers In A Minor Tabs
Midnight Rider Tabs
Pony Boy 1 Tabs
Soulshine Tabs
Stormy Monday Tabs
Whippin Post 2 Tabs


Song lyrics



↑ Back to top | Tablatures and chords are parodies/interpretations of the original songs. You may use it for private study, scholarship, research or language learning purposes only
© 2014 AZChords.com Contact us | Privacy policy | DMCA | Add/correct tabs | Request tabs | Top 50 tabs