>
 >
One Way Out 1

One Way Out 1 Guitar Tabs

Allman Brothers - One Way Out 1 chords, tabs, tablatures, lyrics

Guitar lessons | Add/correct | Request | Top 50 tabs Artists:  A B C D E F G H I J K L M N O P Q R S T U V W X Y Z 0-9

One Way Out 1 Guitar Tabs – Allman Brothers

CD, Sheet music, Poster

Do you like One Way Out 1? Share with your friends now
ChordsTabsTabs v2
ONE WAY OUT
                       As recorded by Allman Brothers Band
                        (From the 1972 Album EAT A PEACH)

Words and Music by Sonny Boy Williamson, Elmore James and Marshall E. Sehorn


          D5
      x 5 7 7 x x

Gtr I (E A D G B E) - 'Gtr. 1'
Gtr II (E A E A C# E) - 'Gtr. 2'
Gtr III (E A D G B E) - 'Gtr. 3'

 Intro
  Uptempo Blues/Rock H=104
 4/4
  Gtr I
  Q  q  E E E E   E E E E E E E E   q  q  E E E E   E E E E E E E E
|---------------|-----------------|---------------|------------------|
|---------------|-----------------|---------------|------------------|
|---------------|-----------------|---------------|------------------|
|----7--7p5---7-|---5-----5-5-7-7-|----7--7p5---7-|---5-------5------|
|-----------7---|-------7---------|-0---------7---|-------7-----7-7--|
|---------------|-----------------|---------------|------------------|


  q  q  E E E E   E E E E E E E E   q  q  E E E E   E E E E E Q     +E
|---------------|-----------------|---------------|----------------------|
|---------------|-----------------|---------------|----------------------|
|---------------|-----------------|---------------|----------------------|
|----7--7p5---7-|---5-------5-7-7-|----7--7p5-----|---5-----5------------|
|-0---------7---|-------7---------|-0---------7-7-|-------7--------------|
|---------------|-----------------|---------------|-----------8b9===(8)r-|


    q  q  E E E E   E E E E E E E E   q  q  E E E E   E E E E  E E E E    3x
||----------------|-----------------|---------------|---------------------||
||o---------------|-----------------|---------------|--------------------o||
||----------------|-----------------|---------------|---------------------||
||-----7--7p5---7-|---5-----5-5-7-7-|----7--7p5---7-|---5------5-5--------||
||o-0---------7---|-------7---------|-0---------7---|-------7------7-7---o||
||----------------|-----------------|---------------|---------------------||


  q  q  E E E E   E E E E E E E E   q  q  E E E E   E E E E E Q     +E
|---------------|-----------------|---------------|----------------------|
|---------------|-----------------|---------------|----------------------|
|---------------|-----------------|---------------|----------------------|
|----7--7p5---7-|---5-----5-5-7-7-|----7--7p5---7-|---5-----5------------|
|-0---------7---|-------7---------|-0---------7---|-------7--------------|
|---------------|-----------------|---------------|-----------8b9===(8)r-|


  q  q  E E E E   E E E E E E E E   q  q  E E E E   E E E E E E E E
|---------------|-----------------|---------------|-----------------|
|---------------|-----------------|---------------|-----------------|
|---------------|-----------------|---------------|-----------------|
|----7--7p5---7-|---5-----5-5-7-7-|----7--7p5---7-|---5-----5-5-----|
|-0---------7---|-------7---------|-0---------7---|-------7-----7-7-|
|---------------|-----------------|---------------|-----------------|


  q  q  E E E E   E E E E E E E E   q  q  E E E E   E E E E E E E  E
|---------------|-----------------|---------------|------------------||
|---------------|-----------------|---------------|------------------||
|---------------|-----------------|---------------|------------------||
|----7--7p5---7-|---5-----5-5-7-7-|----7--7p5---7-|---5-----5-5------||
|-0---------7---|-------7---------|-0---------7---|-------7-----7--7-||
|---------------|-----------------|---------------|------------------||
|
| Gtr II
| W               W                 W               H       Q   Q
|---------------|-----------------|---------------|------------------||
|---------------|-----------------|---------------|------------------||
|---------------|-----------------|---------------|------------------||
|---------------|-----------------|---------------|------------------||
|---------------|-----------------|---------------|------------------||
|---------------|-----------------|---------------|-------------5/---||


   q   q   E  E  E  E   E  E  E E  E  E  E  E
|---------------------|-----------------------|
|---------------------|-----------------------|
|---------------------|-----------------------|
|------7---7p=5-----7-|----5-------5--5--7--7-|
|--0-------------7----|---------7-------------|
|---------------------|-----------------------|
|
|  q   q   E  E  E  E   E  a  E E  E  Q  Q
|---------------------|-----------------------|
|---------------------|-----------------------|
|-12--12--12s10----12-|---12s10------10-12\---|
|---------------12----|-----------12----------|
|---------------------|-----------------------|
|---------------------|-----------------------|


   q    q   E  E  E  E     E  E E E E E  E E
|----------------------|---------------------|
|----------------------|---------------------|
|----------------------|---------------------|
|-------7---7p=5-----7-|------5-----5-5------|
|--0--------------7----|----------7------7-7-|
|----------------------|---------------------|
|
|                    ~~~~~~~~~~~~~~~~~~~~~~
|  q    q   E  E  E  E    +H.            E E
|----------------------|---------------------|
|----------------------|---------------------|
|-----/12--12s10----12-|-(12)s==========16---|
|----------------12----|---------------------|
|-12-------------------|---------------------|
|----------------------|---------------------|


   q   q   E  E  E  E   E  E  E E  E  E  E  E
|---------------------|-----------------------|
|---------------------|-----------------------|
|---------------------|-----------------------|
|------7---7p=5-----7-|----5-------5--5--7--7-|
|--0-------------7----|---------7-------------|
|---------------------|-----------------------|
|
|  q   q   E  E  E  E   E  a  E E  E  Q  Q
|---------------------|-----------------------|
|---------------------|-----------------------|
|-----12--12s10----12-|---12s10------10-12\---|
|---------------12----|-----------12----------|
|-12------------------|-----------------------|
|---------------------|-----------------------|


   q    q   E  E  E  E     E  E E E   E   E  E  E
|----------------------|--------------------------|
|----------------------|--------------------------|
|----------------------|--------------------------|
|-------7---7p=5-----7-|------5-------5---5-------|
|--0--------------7----|----------7----------7--7-|
|----------------------|--------------------------|
|
|                    ~~~~~~~~~~~~~~~~~~~~
|  q    q   E  E  E  E    +H         +E   E  a  Q
|----------------------|--------------------------|
|----------------------|--------------------10s12-|
|-----/12--12s10----12-|-(12)-------(12)----------|
|----------------12----|-----------------12-------|
|-12-------------------|--------------------------|
|----------------------|--------------------------|


  q    q   E  E  E  E   E  E  E E  E  E  E  E
|---------------------|-----------------------|
|---------------------|-----------------------|
|------7---7p=5-----7-|----5-------5--5--7--7-|
|----------------7----|---------7-------------|
|-5-------------------|-----------------------|
|---------------------|-----------------------|
|
| Q    Q   E  E  E  E   E  a  E E  E  a  Q  Q
|---------------------|-----------------------|
|---------------------|-----------------------|
|----/12--12s10----12-|---12s10---------10-12-|
|---------------12----|-----------12-10-------|
|---------------------|-----------------------|
|---------------------|-----------------------|


   q   q   E  E  E  E     E  E  E  E E E Q
|---------------------|---------------------|
|---------------------|---------------------|
|------7---7p=5-----7-|------5-------5-5-7--|
|----------------7----|------------7--------|
|--5------------------|---------------------|
|---------------------|---------------------|
|
|                   ~~~~~~~~~
|  q   q   E  E  E  E    +Q.    E  Q   a q
|---------------------|---------------------|
|---------------------|---------------------|
|-----12--12s10----12-|-(12)----------------|
|---------------12----|-----------12s==8s9--|
|-12------------------|--------12-----------|
|---------------------|---------------------|


   q    q   E  E  E  E   E  E E  E  E  E  E  E
|----------------------|-----------------------|
|----------------------|-----------------------|
|----------------------|-----------------------|
|-------7---7p=5-----7-|----5-------5--5--7--7-|
|--0--------------7----|---------7-------------|
|----------------------|-----------------------|
|
|  q    q   E  E  E  E   E  E E  E  a  Q  E  E
|----------------------|-----------------------|
|----------------------|-----------------------|
|-----/12--12s10----12-|---10------12s10-12s10-|
|----------------12----|--------12-------------|
|-12-------------------|-----------------------|
|----------------------|-----------------------|


   q    q   E  E  E  E     E  E  E  E  E E  q
|----------------------|-------------------------|
|----------------------|-------------------------|
|----------------------|-------------------------|
|-------7---7p=5-----7-|------5--------5-5-------|
|--0--------------7----|------------7-------5----|
|----------------------|-------------------------|
|
|                    ~~~~~~~~~
|  q    q   E  E  E  E    +Q.    E  a  q    E  E
|----------------------|-------------------------|
|----------------------|-----------10s12---------|
|-----/12--12s10----12-|-(12)--------------12s10-|
|----------------12----|--------12---------------|
|-12-------------------|-------------------------|
|----------------------|-------------------------|


   q   q   E  E  E  E   E  E E  E  q     q
|---------------------|-----------------------|
|---------------------|-----------------------|
|------9---9p=7-----9-|----7-------7-----9----|
|----------------9----|---------9-------------|
|--7------------------|-----------------------|
|---------------------|-----------------------|
|
|  q   q   E  E  E  E   E  E E  E  a  Q  E  E
|---------------------|-----------------------|
|---------------------|-----------------------|
|-----12--12s10----12-|---10------12s10-12s10-|
|---------------12----|--------12-------------|
|-12------------------|-----------------------|
|---------------------|-----------------------|


   q    q   E  E  E  E     E  E  E  E E E E E
|----------------------|----------------------|
|----------------------|----------------------|
|-------7---7p=5-----7-|------5-------5-5-----|
|-----------------7----|------------7-----7-7-|
|--5-------------------|----------------------|
|----------------------|----------------------|
|
|                    ~~~~~~~~~
|  q    q   E  E  E  E    +Q.    E  Q   q
|----------------------|----------------------|
|----------------------|----------------------|
|-----/12--12s10----12-|-(12)-----------------|
|----------------12----|-----------10s==9-----|
|-12-------------------|--------12------------|
|----------------------|----------------------|


   q    q   E  E  E  E   E  E  E E  E  E  E  E
|----------------------|------------------------|
|----------------------|------------------------|
|----------------------|------------------------|
|-------7---7p=5-----7-|----5-------5--5--7--7--|
|--0--------------7----|---------7--------------|
|----------------------|------------------------|
|
|  q    Q   E  E  E  E   E  a  E E  E  a  Q  Q
|----------------------|------------------------|
|----------------------|------------------------|
|-----/12--12s10----12-|---12s10------12s10-12\-|
|----------------12----|-----------12-----------|
|-12-------------------|------------------------|
|----------------------|------------------------|


   q    q   E  E  E  E     E  E E E E E E E
|----------------------|--------------------||
|----------------------|--------------------||
|----------------------|--------------------||
|-------7---7p=5-----7-|------5-----5-5-----||
|--0--------------7----|----------7-----7-7-||
|----------------------|--------------------||
|
|                    ~~~~~~~~~
|  q    q   E  E  E  E    +H.           Q
|----------------------|--------------------||
|----------------------|--------------------||
|-----/12--12s10----12-|-(12)---------------||
|----------------12----|--------------------||
|-12-------------------|--------------------||
|----------------------|--------------------||


 1st Verse
    q  q   E  E  E  E   E  E  E E  E  E E  E
|---------------------|----------------------|
|---------------------|----------------------|
|---------------------|----------------------|
|------7---7p=5-----7-|----5-------5--5-7--7-|
|---0------------7----|---------7------------|
|---------------------|----------------------|
|
|   Q  Q   E  E  E  E   E  a  E E  E  Q E  E
|---------------------|----------------------|
|-/12-----------------|-------------------11s|
|-/12-----12s10----12-|---12s10------10---11s|
|---------------12----|-----------12---------|
|---------------------|----------------------|
|---------------------|----------------------|


   q  q   E  E  E  E   E  E  E E  E  E E  E
|--------------------|-----------------------|
|--------------------|-----------------------|
|--------------------|-----------------------|
|-----7---7p=5-----7-|----5-------5--5-------|
|--0------------7----|---------7-------7--7--|
|--------------------|-----------------------|
|
|  Q  Q   E  E  E  E   E  a  E E  E  Q    Q
|--------------------|-----------------------|
|-12-----------------|-----------------------|
|-12-----12s10----12-|---12s10------10-------|
|--------------12----|-----------12----------|
|--------------------|-------------------12\-|
|--------------------|-----------------------|


  q   q   E  E  E  E   E  E  E E  E  E E  E
|--------------------|----------------------|
|--------------------|----------------------|
|--------------------|----------------------|
|-----7---7p=5-----7-|----5-------5--5-7--7-|
|-0-------------7----|---------7------------|
|--------------------|----------------------|
|
| q   q   E  E  E  E   E  a  e E  E  Q E  E
|--------------------|----------------------|
|--------------------|-------------------11s|
|----12--12s10----12-|---12s10------10---11s|
|--------------12----|-----------12---------|
|-0------------------|----------------------|
|--------------------|----------------------|


   q  q   E  E  E  E     E  E E  E  E  E E  E
|--------------------|-------------------------|
|--------------------|-------------------------|
|--------------------|-------------------------|
|-----7---7p=5-----7-|------5-------5--5-------|
|--0------------7----|-----------7-------7--7--|
|--------------------|-------------------------|
|
|                  ~~~~~~~~~
|  Q  Q   E  E  E  E    +Q.      E  a  q    Q
|--------------------|-------------------------|
|-12-----------------|-------------10s12-------|
|-12-----12s10----12-|-(12)----------------12\-|
|--------------12----|----------12-------------|
|--------------------|-------------------------|
|--------------------|-------------------------|


   q   q   E  E  E  E   E  E  E E  E  E  E  E
|---------------------|-----------------------|
|---------------------|-----------------------|
|------7---7p=5-----7-|----5-------5--5--7--7-|
|----------------7----|---------7-------------|
|--5------------------|-----------------------|
|---------------------|-----------------------|
|
|  q   q   E  E  E  E   E  a  E E  E  Q  E  E
|---------------------|-----------------------|
|---------------------|-----------------------|
|-----12--12s10----12-|---12s10------10-12s10-|
|---------------12----|-----------12----------|
|-12------------------|-----------------------|
|---------------------|-----------------------|


   q    q   E  E  E  E     E  E  E  E  E  E  E E
|----------------------|-------------------------|
|----------------------|-------------------------|
|-------7---7p=5-----7-|------5--------5--5------|
|-----------------7----|------------7--------7-7-|
|--5-------------------|-------------------------|
|----------------------|-------------------------|
|
|                    ~~~~~~~~~
|  q    q   E  E  E  E    +Q.    E  a  Q  a  E E
|----------------------|-------------------------|
|----------------------|-----------10s12---------|
|-----/12--12s10----12-|-(12)--------------------|
|----------------12----|--------12-------12s10s8-|
|-12-------------------|-------------------------|
|----------------------|-------------------------|


  q   q   E  E  E  E   E  E  E E  E  E  E  E
|--------------------|-----------------------|
|--------------------|-----------------------|
|--------------------|-----------------------|
|-----7---7p=5-----7-|----5-------5--5--7--7-|
|-0-------------7----|---------7-------------|
|--------------------|-----------------------|
|
| Q   q   E  E  E  E   E  a  E E  E  Q  E  E
|--------------------|-----------------------|
|--------------------|-----------------------|
|----12--12s10----12-|---12s10------10-12s10-|
|--------------12----|-----------12----------|
|--------------------|-----------------------|
|--------------------|-----------------------|


   q   q   E  E  E  E     E  E E E E E  q
|---------------------|---------------------|
|---------------------|---------------------|
|---------------------|---------------------|
|------7---7p=5-----7-|------5-----5-5------|
|--0-------------7----|----------7------5---|
|---------------------|---------------------|
|
|                   ~~~~~~~~~~~~~~~~~~~~~~
|  q   q   E  E  E  E    +H.            E E
|---------------------|---------------------|
|---------------------|---------------------|
|-----12--12s10----12-|-(12)s==========16---|
|---------------12----|---------------------|
|-12------------------|---------------------|
|---------------------|---------------------|


                                                 D5
                                                 Gtr I
   W                    W                        Q Q H         W
                                                 |
                                                 /

   q   q   E  E  E  E   E  E  E E  q     q              W      W
|---------------------|------------------------|-------------|-------------|
|---------------------|------------------------|-------------|-------------|
|------9---9p=7-----9-|----7-------7-----9-----|-------------|-------------|
|----------------9----|---------9--------------|-------------|-------------|
|--7------------------|------------------------|-------------|-------------|
|---------------------|------------------------|-------------|-------------|
|
|  q   q   E  E  E  E   E  a  E E  E  a  Q  Q    Q   Q  H      H    E Q.
|---------------------|------------------------|-------------|-------------|
|---------------------|------------------------|-5-----------|-------------|
|-12--12--12s10----12-|---12s10------12s10-12\-|-5-----------|-------------|
|---------------12----|-----------12-----------|-5-----------|-------------|
|---------------------|------------------------|-------------|-------------|
|---------------------|------------------------|-------------|--------1/---|


  Gtr I
  q  q     E  E  E  E   E  E  E E  E  E  E E
|---------------------|----------------------|
|---------------------|----------------------|
|---------------------|----------------------|
|----7-----7p=5-----7-|----5-------5--5--7-7-|
|-0--------------7----|---------7------------|
|---------------------|----------------------|
|
| E  E  q  E  E  E  E   E  a  E E  E  Q  Q
|---------------------|----------------------|
|---------------------|----------------------|
|------12-12s10----12-|---12s10------10-12---|
|---------------12----|-----------12---------|
|---------------------|----------------------|
|-x-------------------|----------------------|


   q   q   E  E  E  E     E  E E E E E  E E
|---------------------|---------------------||
|---------------------|---------------------||
|---------------------|---------------------||
|------7---7p=5-----7-|------5-----5-5------||
|--0-------------7----|----------7------7-7-||
|---------------------|---------------------||
|
|                   ~~~~~~~~~
|  q   q   E  E  E  E    +H.            Q
|---------------------|----------------11s==||
|---------------------|----------------11s==||
|-----12--12s10----12-|-(12)-----------11s==||
|---------------12----|---------------------||
|-12------------------|---------------------||
|---------------------|---------------------||


 2nd Verse
   q  q   E  E  E  E   E  E  E E  E  E  E  E
|--------------------|-----------------------|
|--------------------|-----------------------|
|--------------------|-----------------------|
|-----7---7p=5-----7-|----5-------5--5--7--7-|
|--0------------7----|---------7-------------|
|--------------------|-----------------------|
|
|  Q  Q   E  E  E  E   E  a  E E  E  Q  E  E
|-12-----------------|--------------------11s|
|-12-----------------|--------------------11s|
|-12-----12s10----12-|---12s10------10-12----|
|--------------12----|-----------12----------|
|--------------------|-----------------------|
|--------------------|-----------------------|


   q  q   E  E  E  E     E  E E E E E  E E
|--------------------|---------------------|
|--------------------|---------------------|
|--------------------|---------------------|
|-----7---7p=5-----7-|------5-----5-5------|
|--0------------7----|----------7------7-7-|
|--------------------|---------------------|
|
|                  ~~~~~~~~~
|  Q  Q   E  E  E  E    +H.         E  E
|-12-----------------|----------------11s==|
|-12-----------------|----------------11s==|
|--------12s10----12-|-(12)----------------|
|--------------12----|---------------------|
|--------------------|---------------------|
|--------------------|---------------------|


   q  q   E  E  E  E   E  E  E E  E  E E  E
|--------------------|----------------------|
|--------------------|----------------------|
|--------------------|----------------------|
|-----7---7p=5-----7-|----5-------5--5-7--7-|
|--0------------7----|---------7------------|
|--------------------|----------------------|
|
|  Q  Q   E  E  E  E   E  a  E E  E  Q E  E
|-12-----------------|----------------------|
|-12-----------------|-------------------11s|
|--------12s10----12-|---12s10------10---11s|
|--------------12----|-----------12---------|
|--------------------|----------------------|
|--------------------|----------------------|


   q  q   E  E  E  E     E  E E  E  E  E  E  E
|--------------------|-------------------------|
|--------------------|-------------------------|
|--------------------|-------------------------|
|-----7---7p=5-----7-|------5-------5--5-------|
|--0------------7----|-----------7--------7--7-|
|--------------------|-------------------------|
|
|                  ~~~~~~~~~
|  Q  Q   E  E  E  E    +Q.      E  E  E  E  E
|--------------------|-------------------------|
|-12-----------------|-------------12s11-------|
|-12-----12s10----12-|-(12)--------------12s10-|
|--------------12----|----------12-------------|
|-----0--------------|-------------------------|
|--------------------|-------------------------|


  q    q   E  E  E  E   E  E  E E  E  E  E  E
|---------------------|-----------------------|
|---------------------|-----------------------|
|------7---7p=5-----7-|----5-------5--5--7--7-|
|----------------7----|---------7-------------|
|-5-------------------|-----------------------|
|---------------------|-----------------------|
|
| Q    q   E  E  E  E   E  a  E E  E  a  Q  Q
|---------------------|-----------------------|
|---------------------|-----------------------|
|----/12--12s10----12-|---12s10------12s10s12-|
|---------------12----|-----------12----------|
|---------------------|-----------------------|
|---------------------|-----------------------|


   q   q   E  E  E  E     E  E E  E  E E Q
|---------------------|---------------------|
|---------------------|---------------------|
|------7---7p=5-----7-|------5-------5-5-7--|
|----------------7----|-----------7---------|
|--5------------------|---------------------|
|---------------------|---------------------|
|
|                   ~~~~~~~~~
|  q   q   E  E  E  E    +Q.   E  a  Q   q
|---------------------|---------------------|
|---------------------|---------------------|
|-----12--12s10----12-|-(12)----------------|
|---------------12----|----------12s10s==9--|
|-12------------------|---------------------|
|---------------------|---------------------|


  q    q   E  E  E  E   E  E  E E  E  E  E  E
|---------------------|-----------------------|
|---------------------|-----------------------|
|---------------------|-----------------------|
|------7---7p=5-----7-|----5-------5--5--7--7-|
|-0--------------7----|---------7-------------|
|---------------------|-----------------------|
|
| Q    q   E  E  E  E   E  a  E E  E  a  Q  q
|---------------------|-----------------------|
|---------------------|-----------------------|
|----/12--12s10----12-|---12s10------12s10-12-|
|---------------12----|-----------12----------|
|---------------------|-----------------------|
|---------------------|-----------------------|


   q    q   E  E  E  E     E  E E E E E q
|----------------------|-------------------|
|----------------------|-------------------|
|----------------------|-------------------|
|-------7---7p=5-----7-|------5-----5-5----|
|--0--------------7----|----------7-----5--|
|----------------------|-------------------|
|
|                    ~~~~~~~~~
|  q    q   E  E  E  E    +W
|----------------------|-------------------|
|----------------------|-------------------|
|-----/12--12s10----12-|-(12)--------------|
|----------------12----|-------------------|
|-12-------------------|-------------------|
|----------------------|-------------------|


                                            D5
                                            Gtr I
   W                  W                     Q Q H           W
                                            |
                                            /

   q  q   E  E E  E   E  E  E E  q     q           W      W
|-------------------|---------------------|-------------|--------------|
|-------------------|---------------------|-------------|--------------|
|-----9---9p=7----9-|----7-------7-----9--|-------------|--------------|
|--------------9----|---------9-----------|-------------|--------------|
|--7----------------|---------------------|-------------|--------------|
|-------------------|---------------------|-------------|--------------|
|
|  q  Q   a  q E  E   E  a  E E  E  Q  q    Q   Q  H      H     E Q.
|-10----------------|---------------------|-------------|--------------|
|-10----------------|---------------------|-5-----------|--------------|
|--------10s12---10-|---10s12------10-12--|-5-----------|--------------|
|-------------------|-----------10--------|-5-----------|--------------|
|-------------------|---------------------|-------------|--------------|
|-------------------|---------------------|-------------|---------0/---|


  Gtr I
  q    q   E  E E  E   E  a  E E  E  Q  E  E
|--------------------|------------------------|
|--------------------|------------------------|
|--------------------|------------------------|
|----------7p=5----7-|----7S=5-------5--7--5--|
|-0----7--------7----|------------7-----------|
|--------------------|------------------------|
|
| q    q   E  E E  E   E  a  E E  E  a  Q  Q
|--------------------|------------------------|
|--------------------|------------------------|
|----/12--12s10---12-|---12s10------12s10-12\-|
|--------------------|-----------12-----------|
|--------------------|------------------------|
|-x------------------|------------------------|


                                Gtr III
  q   q   E  E  E  E    +Q   Q   q   q
|--------------------|-------------------||
|--------------------|----------10--10---||
|--------------------|-------------------||
|-----7---7p=5-----7-|--(7)\-------------||
|-0-------------7----|-------------------||
|--------------------|-------------------||
|
|                  ~~~~~~~~~~~~~~~~~~~~
| Q   Q   E  E  E  E    +H.          e E
|--------------------|-------------------||
|--------------------|-------------------||
|----12--12s10----12-|-(12)s========17---||
|--------------12----|-------------------||
|-0------------------|-------------------||
|--------------------|-------------------||


 Guitar Solo I
  ~
  W               Q   Q       a      +E  E  q
|-8-------------|----10b12---10pb12r(10)p8------|
|---------------|--------------------------10---|
|---------------|-------------------------------|
|---------------|-------------------------------|
|---------------|-------------------------------|
|---------------|-------------------------------|
|
| Gtr II
| Q  E E E Q  E   q   E    E  E          E  E E
|---------------|-------------------------------|
|---------------|-------------------------------|
|----0-0---0----|-------------3b4--------0------|
|----0-0-0------|-3---3----0----------------0-0-|
|----0-0------0-|-------------------------------|
|---------------|-------------------------------|


   ~~
   H     Q   +E    E   H      E  E E E
|--------8---(8)b9---|-------------8----|
|-10-----------------|--------8-10---8--|
|--------------------|------------------|
|--------------------|------------------|
|--------------------|------------------|
|--------------------|------------------|
|
|  q  q  e E  E    E   q  E E E  E e e
|--------------------|------------------|
|--------------------|------------------|
|----------0---------|------------------|
|-----0-------0----0-|-3--3-0------0-0--|
|--0--0--0-----------|--------3--0------|
|--------------------|------------------|


                                     ~~~~~~~~
   W                    +H        E  Q.
|-10b12==============|=(10)r------8---------|
|--------------------|--------------10------|
|--------------------|----------------------|
|--------------------|----------------------|
|--------------------|----------------------|
|--------------------|----------------------|
|
| +Q      Q  E E E E     q    E E E  E  E E
|--------------------|----------------------|
|--------------------|----------------------|
|---------0----------|---------------0------|
|-(0)-----0----2---0-|---3----3-0---------0-|
|---------0----0-0---|---0--------3-----0---|
|--------------------|----------------------|


 ~~~~
   H     q    E E   E  E E E  E E E E
|-----------------|--------------------|
|-10-----8---10---|-8-10p8---10---8----|
|---------------9-|--------9----9---9s=|
|-----------------|--------------------|
|-----------------|--------------------|
|-----------------|--------------------|
|
|  q  Q  E E  E E   E  E Q    Q   Q
|-----------------|--------------------|
|-----------------|--------------------|
|-----0-----------|--------------------|
|--0--0----2----0-|-3------------------|
|--0--0----0--0---|-0--0-2----3---4----|
|-----------------|--------------------|


                                       |-----3------|
   E  E  E  E  Q     E  E    Q   E  E  E     +E     E  E  E
|-------------------------|---------------------------------|
|----10-12----10----12----|-10--12p10-12b13r(12)---10-12----|
|-11-------11----------11-|------------------------------11-|
|-------------------------|---------------------------------|
|-------------------------|---------------------------------|
|-------------------------|---------------------------------|
|
|  q     Q    +E  E  E  E    q   E  E  E         E     E  E
|-------------------------|---------------------------------|
|-------------------------|---------------------------------|
|--------5----(5)----5----|---------5-----------------------|
|--------5----(5)-7-----5-|--8---8--5------------7--------5-|
|--5-----5----(5)---------|----------------------5--------5-|
|-------------------------|---------------------------------|


   E   E      +Q     E  E      +Q        E  E      +Q      E  Q        +E
|-------------------12----------------|-12----------------12---------------|
|-10--12b13==(12)r-----12b13==(12)r---|----12b13==(12)r------12pb13r==(12)-|
|-------------------------------------|------------------------------------|
|-------------------------------------|------------------------------------|
|-------------------------------------|------------------------------------|
|-------------------------------------|------------------------------------|
|
| +Q           Q     E  E       E   E    q          E   E  E  E     Q
|-------------------------------------|------------------------------------|
|-------------------------------------|------------------------------------|
|-----------------------5-------5-----|-----------------5-----5------------|
|-(5)----------5--------------------5-|--8----------8---5-----5------------|
|-(5)----------5----------------------|--------------------5---------------|
|-------------------------------------|------------------------------------|


   ~~~~~~~~~~                               ~~~~~~~~
   H      Q.      E    E  Q        +E    E  Q.
|-------------------|------------------------------|
|-10-----10---------|-10-12b14====(12)r-10---------|
|----------------11-|----------------------11------|
|-------------------|------------------------------|
|-------------------|------------------------------|
|-------------------|------------------------------|
|
|  q  Q   E  E E  E    q        E   E    E  E  E E
|-------------------|------------------------------|
|-------------------|------------------------------|
|-------------------|------------------------------|
|--0--0------2------|--3--------3---0-------2----0-|
|--0--0---0----0--0-|--0-----------------0-----0---|
|-------------------|------------------------------|


 ~~~~~
   H       Q    Q          +Q      Q    Q       Q
|--------------12b14====|=(12)r---12---12b14---12---|
|-10------10------------|---------------------------|
|-----------------------|---------------------------|
|-----------------------|---------------------------|
|-----------------------|---------------------------|
|-----------------------|---------------------------|
|
|  Q   Q   E E  E     E     E   E  E E  E    E  E E
|-----------------------|---------------------------|
|-----------------------|---------------------------|
|------------0--------0-|---------------------------|
|-(0)--0-----2--------0-|---3---x--3-x-------2----0-|
|--0---0---0----0-------|---0---x--0-x--0-------0---|
|-----------------------|---------------------------|


   ~~~~~~~~~~~~
   H         H          E  E  Q   Q.     +E
|-12b14-----12-------|-10h12-10---8------(8)b9-|
|--------------------|----12-10----------------|
|--------------------|-------------------------|
|--------------------|-------------------------|
|--------------------|-------------------------|
|--------------------|-------------------------|
|
|  q     Q   E E E E    q     E E E  Q.
|--------------------|-------------------------|
|--------------------|-------------------------|
|--7-----7-----------|---------------7---------|
|--7-----7-----9-----|-10----10-7----7---------|
|--7-----7-------7-7-|--7-----7---7--7---------|
|--------------------|-------------------------|


           ~                          ~~~
   Q  E  E Q   E E    Q   Q     E  E  Q
|-----8----8--10p8-|-10--10b12--8-----8---|
|-10----10---------|--------------10------|
|------------------|----------------------|
|------------------|----------------------|
|------------------|----------------------|
|------------------|----------------------|
|
|  Q  Q    H          H         Q     Q
|------------------|----------------------|
|------------------|----------------------|
|--5---------------|----------------------|
|--5---------------|----------------------|
|--5---------------|-----------------15\--|
|------------------|----------------------|


   ~~
   H     q    E E   E E q      E  E E E   Q  E E E E E E   E E Q   Q   E E
|-----------------|---------------------|----------------|-----------------||
|-10-----8---10---|-8-------------------|----------------|---------8---5-8-||
|---------------9-|---9p7------5h=6-----|--------5---7---|-5-7s9-----------||
|-----------------|-----------------7---|-7--5-7---7---7-|-----------------||
|-----------------|-------------------7-|----------------|-----------------||
|-----------------|---------------------|----------------|-----------------||
|
|  Q  q  E Q    E   q   E  E  +E  E E E   q  Q   E E E E   Q   E E E E E E
|-----------------|---------------------|----------------|-----------------||
|-----------------|---------------------|----------------|-----------------||
|-----0-----------|--------0--(0)-------|----------------|-----------------||
|--0--0----2----0-|-3---3p=0--(0)-2-----|-0--0-----2-----|-3---3-0---2---0-||
|--0-------0------|-0---0-(0)-(0)-0-0-0-|-0--0---0---0-0-|-0-------0---0---||
|-----------------|---------------------|----------------|-----------------||


  E E E E E E E E   E E E E E E Q
|-5---8---5-8p5---|-8---5-8p5---5---|
|---5---8-------8-|---8-------8-----|
|-----------------|-----------------|
|-----------------|-----------------|
|-----------------|-----------------|
|-----------------|-----------------|
|
| q   Q   E E E E   Q   E E E E E E
|-----------------|-----------------|
|-----------------|-----------------|
|-----------------|-----------------|
|-0---0-----2---0-|-3---3-0---2---0-|
|-0---0---0---0---|---------0---0---|
|-----------------|-----------------|


                       ~~~~~~~~~~
   E  E E E     +Q     Q     +Q   E E E E  Q
|--8----5-8b10==(8)r---8---|-(8)--5---5-------|
|-----8--------------------|--------8---8s10--|
|--------------------------|------------------|
|--------------------------|------------------|
|--------------------------|------------------|
|--------------------------|------------------|
|
|  Q    Q        E   E E E    Q   E E E E  Q
|--------------------------|------------------|
|--------------------------|------------------|
|--------------------------|------------------|
|-(0)---0------------2-----|--3---3-0---2--0--|
|--0----0--------0-----0-0-|----------0----0--|
|--------------------------|------------------|


   ~~~~~~~~~~~~~~~~~~~~~~~~~~~~~~
   Q.     E  +Q    Q     +E   Q.     Q   E E
|------------------8---|-(8)-----------------|
|-10-----10-(10)-------|-----10------8-------|
|----------------------|-----------------9s7-|
|----------------------|---------------------|
|----------------------|---------------------|
|----------------------|---------------------|
|
| +Q   E  E   E  E E E    q      E E E E E E
|----------------------|---------------------|
|----------------------|---------------------|
|---------x------------|-----------x---------|
|-(0)--0--x------2---0-|--3------3-x---2-0-0-|
|-(0)--0------0----0-0-|-------------0---0---|
|----------------------|---------------------|


  ~~~~~~~~~~~~~~~~~~~~~~~~
  Q.    E +Q    Q     +Q   E E E E Q
|-------------------|-----------------|
|-------------------|-----------------|
|-5-----5-(5)-------|-----------------|
|---------------7---|-(7)--5---5---5--|
|-------------------|--------7---7----|
|-------------------|-----------------|
|
| q   q    E  E E E    q   Q   Q   Q
|-------------------|-----------------|
|-------------------|-----------------|
|-------------------|------2---3---4--|
|-0---0-------2---0-|--3--------------|
|-0---0----0----0---|------2---3---4--|
|-------------------|-----------------|


         ~         ~                                                        ~
  E E Q  Q   E E   Q  E E E Q    E    a  Q q  E E q     Q.    +E      E E E E
|----------------|-----------------|------------------|-----------------------|
|----------------|-----------------|------------------|-----------------------|
|----------------|-----------------|--------------7---|-5-----(5)b5.5---------|
|-7------7---9---|-7--9---7-9\-----|-------7--7-9-----|---------------7p5---7-|
|---7s9--------9-|------9--------3h|==5s=9------------|-------------------7---|
|----------------|-----------------|------------------|-----------------------|
|
| q   Q  E E E E   q  E E E E  E E    Q    Q  E E E E   q   E  E      E E Q
|----------------|-----------------|------------------|-----------------------|
|----------------|-----------------|------------------|-----------------------|
|-5---5----------|-----------------|-------5----5-----|-----------------------|
|-5---5--5-7-----|-8--8-5---7----5-|-(5)---5--------5-|-8---8--5--------7-----|
|-5---5--5-----5-|--------5----5---|--5----5--7---5-5-|---------------5-------|
|----------------|-----------------|------------------|-----------------------|


   ~~~
  +Q   H.              +Q   +Q     E E E E
|--------------------|---------------------|
|------5-------------|-(5)--(5)------------|
|------7b9===========|=(7)--(7)r---7p5-----|
|-(7)----------------|-----------------7-7-|
|--------------------|---------------------|
|--------------------|---------------------|
|
|  q   q     E E E E    q    E   E E E E E
|--------------------|---------------------|
|--------------------|---------------------|
|--------------------|---------------------|
|--0---0-------2---0-|--3----3---0---2---0-|
|--0---0-----0---0---|-------------0---0---|
|--------------------|---------------------|


  +E  E E E E E  E E   E  E E E  q    q
|--------------------|------8-9-10---10b11--|
|-----------8---10---|-8-10-----------------|
|-----6s8s9---9----9-|----------------------|
|-(7)----------------|----------------------|
|--------------------|----------------------|
|--------------------|----------------------|
|
|  Q    q   E E  E E   q    E E  E E  Q
|--------------------|----------------------|
|--------------------|----------------------|
|--------------------|----------------------|
|-(0)---0-----2----0-|-3----3-0----2--0/----|
|--0----0---0----0---|-----------0----0/----|
|--------------------|----------------------|


                                             ~~~~~~~~~~
   H         E     +E    E  E        +Q     +Q     +Q.      E
|-10b12-----10b12r(10)p==8-10b12==|=(10)r--(10)---(10)-----10pb11==|
|---------------------------------|--------------------------------|
|---------------------------------|--------------------------------|
|---------------------------------|--------------------------------|
|---------------------------------|--------------------------------|
|---------------------------------|--------------------------------|
|
|  q     q   E         E E  E         q      E  E   E  Q.
|---------------------------------|--------------------------------|
|---------------------------------|--------------------------------|
|---------------------------------|--------------------6-----------|
|--7-----7-------------9----------|--10-----10--7------------------|
|--7-----7---7--------------7-----|-----------------7--------------|
|---------------------------------|--------------------------------|


   +E        e  q   q   q     E  +E   Q   E E  q
|-(10)pb12==10-10--10--10--|-10-(10)rp8--10p8-------|
|--------------------------|------------------10----|
|--------------------------|------------------------|
|--------------------------|------------------------|
|--------------------------|------------------------|
|--------------------------|------------------------|
|
|   Q           Q   H         H           Q    Q
|--------------------------|------------------------|
|--------------------------|------------------------|
|---5----------------------|------------------------|
|---5----------------------|------------------------|
|---5----------------------|------------------12\---|
|--------------------------|------------------------|


   ~~~                                     ~~~
   H.         Q     +Q    q    E E  q      H      E E  E E   E E q   E E  E E
|-------------8---|-(8)--10---10p9------|------------------|------------------||
|-10--------------|----------------10---|-10------8---10---|-8----------------||
|-----------------|---------------------|-----------9----9-|---9s7---5h6------||
|-----------------|---------------------|------------------|--------------7---||
|-----------------|---------------------|------------------|----------------7-||
|-----------------|---------------------|------------------|------------------||
|
|  Q   Q  E E E E    E E  E E  E E  E E   +Q   q  E E  E E   q   E E E Q.
|-----------------|---------------------|------------------|------------------||
|-----------------|---------------------|------------------|-----------0/-----||
|-----------------|-------0-------------|------0---------0-|-----------0/-----||
|--0---0----2---0-|--3p0--3------2p=0-0-|-(0)--0----2----0-|-3---3-2---0/-----||
|--0---0--0-----0-|---------0--0------0-|-(0)-------0--0---|-0---0---0-0/-----||
|-----------------|---------------------|------------------|------------------||


 Interlude
   Q  +Q    H      W          W          W
|----------------|----------|----------|------|
|----------------|----------|----------|------|
|----------------|----------|----------|------|
|--7--(7)\-------|----------|----------|------|
|----------------|----------|----------|------|
|----------------|----------|----------|------|
|
|  Q   Q    H      W          W          W
|----------------|----------|----------|------|
|-12-------------|----------|----------|------|
|-12-------------|----------|----------|------|
|-12-------------|----------|----------|------|
|-12-------------|----------|----------|------|
|----------------|----------|----------|------|


  W          W          W          H    Q  q
|----------|----------|----------|------------|
|----------|----------|----------|---------5--|
|----------|----------|----------|------------|
|----------|----------|----------|------------|
|----------|----------|----------|------------|
|----------|----------|----------|------------|


            ~~~                                            ~~
  H        +H       E E E E E E    +E  E   q  H.         E Q.  Q   q
|-----------------|-5--------------------|-------------|-------------------|
|-8b10=====(8)----|---8---5--------------|-------------|-------------------|
|-----------------|-----------7pb9r(7)p5-|-7--7b9------|-5-----5h==7-------|
|-----------------|----------------------|-------------|---7---------------|
|-----------------|----------------------|-------------|-------------------|
|-----------------|----------------------|-------------|-------------------|
|
| Gtr II
| W                 W                      W             H       Q    a  Q
|-----------------|----------------------|-------------|-------------11s12-|
|-----------------|----------------------|-------------|-------------------|
|-----------------|----------------------|-------------|-------------------|
|-----------------|----------------------|-------------|-------------------|
|-----------------|----------------------|-------------|-------------------|
|-----------------|----------------------|-------------|-------------------|


      ~~~~~~~~~
    a H   +H         W
|-----------------|-----------------------------|
|-----------------|-----------------------------|
|---7s9---(9)\----|-----------------------------|
|-----------------|-----------------------------|
|-----------------|-----------------------------|
|-----------------|-----------------------------|
|
|   ~~~~
|   W                E  E   E  a  E  E  Q  +E
|-/17-------------|-17s15-----12s11-11----------|
|-----------------|-------/11----------12-(12)\-|
|-----------------|-----------------------------|
|-----------------|-----------------------------|
|-----------------|-----------------------------|
|-----------------|-----------------------------|


    W                          Q    H.
|--------------------------|-------10b11-----------|
|--------------------------|-----------------------|
|--------------------------|-----------------------|
|--------------------------|-----------------------|
|--------------------------|-----------------------|
|--------------------------|-----------------------|
|
|                              ~~~~
|   q  a  q  E  E  E  a  E    +H           E  E Q
|--------------------------|-----------------------|
|-/12-12s10----------------|-----------------------|
|-----------12s10----10s12-|-(12)---------12s16----|
|-----------------12-------|-----------------------|
|--------------------------|-----------------------|
|--------------------------|-----------------------|


                ~~~~~~~~~~
   +H        E  Q.      H    Q    Q
|-(10)b12----8-------|-------8b9-----|
|--------------10----|-10------------|
|--------------------|---------------|
|--------------------|---------------|
|--------------------|---------------|
|--------------------|---------------|
|
|   W                   W
|--------------------|---------------|
|--------------------|---------------|
|--------------------|---------------|
|--------------------|---------------|
|--------------------|---------------|
|--------------------|---------------|


              ~~~~~~~~~~
   H       E  Q.      H     H
|-10b12----8-------|--------------------------|
|------------10----|-10----10\----------------|
|------------------|--------------------------|
|------------------|--------------------------|
|------------------|--------------------------|
|------------------|--------------------------|
|
|  W                  H     E   E  a  E  a  E
|------------------|--------------------------|
|------------------|--------------------------|
|------------------|--------------10s12-------|
|------------------|-----------12-------12s10-|
|------------------|--------------------------|
|------------------|--------------------------|


  Gtr II
       ~~~~~~~~~~~       ~~~~~~~~~~~~
    E  Q   E  +E  E   E  E    +E   Q  E   Q   Q
|--------------------------|-----------------12--|
|-/12---------------/12----|------------/12------|
|-----12--12-(12)-9-----12-|-(12)-12--9-/12------|
|--------------------------|---------------------|
|--------------------------|---------------------|
|--------------------------|---------------------|


                         3/4
   Q   S  E.  E  E  Q       E E E   E  E  E
|-12--12s10-------------|-------------17s15--||
|------------12s10------|---x---3/-15--------||
|------------------12\--|---x-3--------------||
|-----------------------|--------------------||
|-----------------------|--------------------||
|-----------------------|--------------------||


 Guitar Solo II
 4/4
                          Gtr I
   Q     q     E e  E e    E  E  E  E  E  E  E     E
|-----------------------|----------------------------|
|--------7-----7-5------|----------------------------|
|--------7-----7-5----7-|-----5--------5--5--7-----7-|
|---------------------7-|-----------7----------------|
|-------------------7---|----------------------------|
|-----------------------|----------------------------|
|
| Gtr II
|  E  E  a  Q  a    H      a  E  Q  E  a  Q  S  E.
|-------15s17-15s==17---|-------------10s12-12s10----|
|-15s13-----------------|-13s15-13-12----------------|
|-----------------------|----------------------------|
|-----------------------|----------------------------|
|-----------------------|----------------------------|
|-----------------------|----------------------------|


   q     q     E  E  E  E    E  E   E E  E   E    E     E
|-------------------------|--------------------------------|
|-------------------------|--------------------------------|
|--------------7p=5-----7-|-----5--------5---5-------------|
|--7-----7-----------7----|-----------7-----------7-----7--|
|--5-----5----------------|--------------------------------|
|-------------------------|--------------------------------|
|
|        ~~~~~
|  a  E  Q  E  a  q  E  E    a  E   e E  E  +Q    S  E.
|-------------11s12-------|--------------------------------|
|-10s12-------11s12-------|-------/12-----------/14-13-----|
|-------12-12-------12s10-|-10s12-------12-(12)------------|
|-------------------------|--------------------------------|
|-------------------------|--------------------------------|
|-------------------------|--------------------------------|


   q     q    E  E  E E    E  E  E  E  E     E   E   E
|-----------------------|------------------------------|
|-----------------------|------------------------------|
|-----------------------|------------------------------|
|--------7----7p=5----7-|-----5--------5-----5---7---7-|
|--0----------------7---|--------7--7------------------|
|-----------------------|------------------------------|
|
|                ~~~
|  E  a  Q.   E  Q.        E  a  Q  E  a  E  E   E   E
|-----9s12---12-12------|----10s12-12-10s12s10-----/12-|
|-12\-------------------|-12-------------------/12-----|
|-----------------------|------------------------------|
|-----------------------|------------------------------|
|-----------------------|------------------------------|
|-----------------------|------------------------------|


    q       q     E   E   E  E    E  E  E  E  E  E  q
|------------------------------|--------------------------|
|------------------------------|--------------------------|
|------------------------------|--------------------------|
|-----------7-----7p==5------7-|-----5--------5--5--------|
|---0---------------------7----|-----------7--------5-----|
|------------------------------|--------------------------|
|
|  +E   E   a  S  E.  E   Q  E    E  E  a  Q  a  Q  E  E
|-(12)-----10s12s10---------17s|=15----15s17-15s17-17s15--|
|------12\----------/12-/15----|----15--------------------|
|------------------------------|--------------------------|
|------------------------------|--------------------------|
|------------------------------|--------------------------|
|------------------------------|--------------------------|


   q     q     E       E     E  E    E   E    E  E Q    q
|---------------------------------|--------------------------|
|---------------------------------|--------------------------|
|--------9-----9p======7--------9-|------7---------7----9----|
|----------------------------9----|--------------9-----------|
|--7------------------------------|--------------------------|
|---------------------------------|--------------------------|
|
|  E  a  Q  a  E  +S   E  S  Q       E   Q.  +Q        +Q
|----15s17-15s17-(17)s15----------|--------------------------|
|-15---------------------15-------|-12-/15--(15)------(15)\--|
|---------------------------16\---|--------------------------|
|---------------------------------|--------------------------|
|---------------------------------|--------------------------|
|---------------------------------|--------------------------|


   E  Q         E  Q           E   E     E  Q      E   Q.        E
|------------------------------------|-----------------------------|
|------------------------------------|-----------------------------|
|-----5b5.5--------5b5.5-----------5-|------5b5.5------5b5.5-------|
|---------------7--------------7-----|-------------7---------------|
|------------------------------------|-----------------------------|
|------------------------------------|-----------------------------|
|
|  a  Q      a  E  E      +E   E   Q    +H            +Q       Q
|------------------------------------|-----------------------------|
|------------------------------------|-----------------------------|
|-12s10-----------10-----(10)----\10-|-(10)----------(10)s====11---|
|-----------12s13-------------13-----|-----------------------------|
|------------------------------------|-----------------------------|
|------------------------------------|-----------------------------|


   Q   q   E  E  E  E   E  E  E E  E  E  E E
|---------------------|----------------------|
|---------------------|----------------------|
|---------------------|----------------------|
|------7---7p=5-----7-|----5-------5--5--7-7-|
|----------------7----|---------7------------|
|---------------------|----------------------|
|
|  Q   Q   E  E  E  E   E  a  E E  E  Q  Q
|---------------------|----------------------|
|---------------------|----------------------|
|-----12--12s10----12-|---12s10------14s16---|
|---------------12----|-----------12---------|
|-12------------------|----------------------|
|---------------------|----------------------|


    q   q     E  E  E   E     E  E E E  E E  E E
|-------------------------|----------------------||
|-------------------------|----------------------||
|-------------------------|----------------------||
|-------7-----7p=5------7-|------5------5-5------||
|---0---------------7-----|----------7-------7-7-||
|-------------------------|----------------------||
|
|   ~~~~
|   H      a  E  E  E   E    +H         Q    Q
|--17-----15s17s15----/19-|-(19)s======20s==21---||
|------------------15-----|----------------------||
|-(16)--------------------|----------------------||
|-------------------------|----------------------||
|-------------------------|----------------------||
|-------------------------|----------------------||


 3rd Verse
  q  q   E  E  E  E   E  E  E E  E  E  E  E
|-------------------|-----------------------|
|-------------------|-----------------------|
|-------------------|-----------------------|
|----7---7p=5-----7-|----5-------5--5--7--7-|
|-0------------7----|---------7-------------|
|-------------------|-----------------------|
|
| H      E  E  E  E   E  a  E E  E  Q  E  E
|-------------------|-----------------------|
|-------------------|-----------------------|
|-------12s10----12-|---12s10------10-12s10-|
|-------------12----|-----------12----------|
|-------------------|-----------------------|
|-------------------|-----------------------|


   q   q   E  E  E  E     E  E E E E E E  E
|---------------------|----------------------|
|---------------------|----------------------|
|---------------------|----------------------|
|------7---7p=5-----7-|------5-----5-5-------|
|--0-------------7----|----------7-----7--7--|
|---------------------|----------------------|
|
|                   ~~~~~~~~~
|  q   q   E  E  E  E    +H.           E  E
|---------------------|----------------------|
|---------------------|------------------11s=|
|-----12--12s10----12-|-(12)-------------11s=|
|---------------12----|----------------------|
|-12------------------|----------------------|
|---------------------|----------------------|


   q  q   E  E  E  E   E  E E  E     E E  E  E
|--------------------|-------------------------|
|--------------------|-------------------------|
|--------------------|-------------------------|
|-----7---7p=5-----7-|----5----------5-5--7--7-|
|--0------------7----|---------7---------------|
|--------------------|-------------------------|
|
|  Q  Q   E  E  E  E   E  E E  E  a  Q    E  E
|--------------------|-------------------------|
|-12-----------------|-------------------------|
|-12-----12s10----12-|---10------12s10---12s10-|
|--------------12----|--------12---------------|
|--------------------|-------------------------|
|--------------------|-------------------------|


   q   q   E  E  E  E     E  E E E E E  E E
|---------------------|----------------------|
|---------------------|----------------------|
|---------------------|----------------------|
|------7---7p=5-----7-|------5-----5-5-------|
|--0-------------7----|----------7------7-7--|
|---------------------|----------------------|
|
|                   ~~~~~~~~~
|  q   q   E  E  E  E    +H.            q
|---------------------|----------------------|
|---------------------|----------------------|
|-----12--12s10----12-|-(12)-----------------|
|---------------12----|----------------12----|
|-12------------------|----------------------|
|---------------------|----------------------|


  q   q   E  E  E  E   E     E E  E  E E  E  E
|--------------------|-------------------------|
|--------------------|-------------------------|
|-----7---7p=5-----7-|-------5-------5-5--7--7-|
|---------------7----|------------7------------|
|-5------------------|-------------------------|
|--------------------|-------------------------|
|
| Q   q   E  E  E  E   E  a  E E  E  Q    E  E
|--------------------|-------------------------|
|--------------------|-------------------------|
|----12--12s10----12-|---12s10------10---12s10-|
|--------------12----|-----------12------------|
|--------------------|-------------------------|
|--------------------|-------------------------|


   q   q   E  E  E  E     E  E E  E     E E Q
|---------------------|------------------------|
|---------------------|------------------------|
|------7---7p=5-----7-|------5----------5-5-7--|
|----------------7----|-----------7------------|
|--5------------------|------------------------|
|---------------------|------------------------|
|
|                   ~~~~~~~~~
|  q   q   E  E  E  E    +Q    E  E  a  Q   q
|---------------------|------------------------|
|---------------------|------------------------|
|-----12--12s10----12-|-(12)-------------------|
|---------------12----|-------------12s10s==9--|
|-12------------------|----------10------------|
|-----------------





Comments


Popular Allman Brothers tabs & chords
Hoochie Koochie Man 1 Bass Tabs
In Memory Of Elizabeth Reed 1 Bass Tabs
Melissa Bass Tabs
Trouble No More 1 Bass Tabs
Whippin Post Bass Tabs
Cross To Bear Tabs
Jelly Jelly Tabs
Little Martha Tabs
Midnight Rider Tabs
Soulshine Tabs


Song lyrics



↑ Back to top | Tablatures and chords are parodies/interpretations of the original songs. You may use it for private study, scholarship, research or language learning purposes only
© 2014 AZChords.com Contact us | Privacy policy | DMCA | Add/correct tabs | Request tabs | Top 50 tabs