» » »

If I Ain't Got You Bass tabs (ver.1)

Artists:  A B C D E F G H I J K L M N O P Q R S T U V W X Y Z # 

If I Ain't Got You Bass tabs (ver.1)

Alicia Keys
Rating:
0/5 (0 votes)

Hard to play? Try these video lessons and learn fast.
                (Intro)
Alicia Keys- If I Ain't Got You, Just the intro there isn't very much in the song but 
and drums anyways.

G|--------------------------------------------------------------------------|
D|-5-3-0----5-3-0----5-3-0----5-3-0----5-3-0----5-3-0-----------------------|
A|--------------------------------------------------------------------------|
E|--------------------------------------------------------------------------|


G|--------------------------------------------------------------------------|
D|-3--------3---------3--------3-------3--------3---------------------------|
A|---3-0------3-0-------3-0------3-0-----3-0------3-0-----------------------|
E|--------------------------------------------------------------------------|


G|--------------------------------------------------------------------------|
D|-2--------2--------2-------2------2------2--------------------------------|
A|---2--------2--------2-------2------2------2------------------------------|
E|-----3--------3--------3-------3------3------3----------------------------|


G|--------------------------------------------------------------------------|
D|-0-----0-------0-------0-------0-------0----------------------------------|
A|--0------0-------0-------0-------0-------0--------------------------------|
E|----1------1-------1-------1-------1-------1------------------------------|
            
Hard to play? Try these video lessons and learn fast. | Correct




comments powered by Disqus
↑ Back to top | Tablatures and chords are parodies/interpretations of the original songs. You may use it for private study, scholarship, research or language learning purposes only