» » »

Alicia Keys, Unbreakable Tabs (ver.1)

Artists:  A B C D E F G H I J K L M N O P Q R S T U V W X Y Z # 

Unbreakable Tabs (ver.1)

Alicia Keys Tabs
Rating:
0/5 (0 votes)
Unbreakable lessons Tabs too difficult? Try these video lessons and learn fast
                Tuning: EADGBe

 Actually, this tab is not meant to be played on the guitar, but to be
transposed to the piano...

(PIANO)

INTRO:
e|--------------------------------|   ----------------------------|
B|--------------------------------|   ----------------------------|
D|--------------------------------|(2)----------------------------|
G|-----9---9---9-------6---7---8--|   ---9--9---9--11-------------|
A|--------------------------------|   ----------------------------|
E|--7----7---7-------4---5---6----|   -7--7-----7---9-------------|

The rest of the song is played like this..
e|---------------4---2----4---4--4-------|
B|---------------2---4----5---4--4-------|
D|---------------2---5----4---3--3-------|  (repeat)
G|----6---7---8--------------------------|
A|---------------2--------4--------------|
E|-4----5---6--------4--------2--2-------|


(GUITAR) a version for guitar could be something like this:
e|------------------4---5----4---4--4---|
B|------------------2---4----5---4--4---|
D|---------2--------2---5----4---3--3---| (repeat)
G|----5-------------2---4----6---4--4---|
A|-------0----1-----2--------4----------|
E|-4----------------x--------x----------|
            

comments powered by Disqus
↑ Back to top | Alicia Keys Tabs for Unbreakable. Lyrics for acoustic guitar and electric guitar. Tablatures and chords are parodies/interpretations of the original songs. You may use it for private study, scholarship, research or language learning purposes only