» » »

Alicia Keys, Another Way To Die Bass tabs (ver.1)

Artists:  A B C D E F G H I J K L M N O P Q R S T U V W X Y Z # 

Another Way To Die Bass tabs (ver.1)

Alicia Keys Tabs
 Rating:
4.4/5 (7 votes)
Another Way To Die lessons Tabs too difficult? Try these video lessons and learn fast
                This is only my second tab but i think its pretty good. the only part im not sure of is 
Bridge, if anyone knows if its right or can fix it please comment!
-♥-♥-♥-♥-♥-♥-♥-♥-♥-♥-♥-♥-♥-♥-♥-♥-♥-♥-♥-♥-♥-♥-♥-♥-♥-♥-♥-♥-♥-♥-♥-♥-♥-♥-♥-♥-♥-♥
Standard Tuning:EADG
James Bond Theme.

come in after guitar intro.

Intro
G|-------------------|
D|-------------------|
A|---------5-------7-|   X2
E|---0-3-0---0-3-0---|

piano (break)

Verse 1
G|-----------------------|
D|-----------------------|
A|-----------------------|
E|-0~-0-3-0---0-3-0-0-3-0|

G|-------------------|
D|-------------------|
A|-------------------|   X5
E|---7---3---0-------|

Chorus
G|---------------------|
D|---------------------|
A|---------------------|
E|---77--33--55--55-55-|
Verse 2
G|------------------|
D|------------------|
A|------------------|
E|-0~----0-3-0-0-3-0|

G|--------------|    |-------------|
D|--------------|    |-------------|
A|--------------| X2 |-------------|
E|---7---3---0--|    |-0-3-0--0-3-0|

G|--------------|
D|--------------|
A|--------------|   X3
E|---7---3---0--|

Chorus
G|---------------------|
D|---------------------|
A|---------------------|  X2
E|---77--33--55--55-55-|

Bridge
G|---------------------------|
D|---------------------------|
A|---------------------------|  X4
E|-0~--5555-5555---7777-0000-|

G|--------------|
D|--------------|
A|--------------|
E|-0-3-0--0-3-0-|

Verse 3
G|--------------|
D|--------------|
A|--------------|   X5
E|---7---3---0--|

Chorus
G|---------------------|
D|---------------------|
A|---------------------|  X2
E|---77--33--55--55-55-|

G|-------------|
D|-------------|
A|-------------|
E|-0~--0-3-0---|

Into
skip while guitar plays
G|-------------------|
D|-------------------|
A|---------5-------7-|   X7
E|---0-3-0---0-3-0---|

Piano Finishes.
            
Submit corrections

comments powered by Disqus
↑ Back to top | Alicia Keys Bass for Another Way To Die. Lyrics for acoustic guitar and electric guitar. Tablatures and chords are parodies/interpretations of the original songs. You may use it for private study, scholarship, research or language learning purposes only