» » »

Alice Cooper, Desperado Tabs (ver.2)

Artists:  A B C D E F G H I J K L M N O P Q R S T U V W X Y Z # 

Desperado Tabs (ver.2)

Alice Cooper Tabs
Rating:
3/5 (1 vote)
Desperado lessons Tabs too difficult? Try these video lessons and learn fast
                
Writing my name like that took nearly as long as the tab itself.
just kidding . . . it took way longer.

Intro
e|-----------------------------------------|-------------------------------------5-----3---------|
B|-----3-----5-----6-----5-----3------3----|-1-----0-----1-----0-----3-----5-----------------5\--|
G|---3---3-----3-----3-----3------------2--|---2-----2-----2-------3---3-----3-----3-----3-------|
D|-3-------3-----3-----3-----3------2-----2|-----2-----2-----2---3-------3-----3-----3-----3-----|
A|--------------------------------0--------|-----------------------------------------------------|
E|-----------------------------------------|-----------------------------------------------------|
 |                                         |                                                     |
e|-----------------------------------------|--6--------------------------------------------------|
B|-----------------------------------------|---6-------------------------------------------------|
G|-----------------------------------------|----7------------------------------------------------|
D|-----------------------------------------|-----8-----------------------------------------------|
A|-----------------------------------------|------8----------------------------------------------|
E|-----------------------------------------|-----------------------------------------------------|

e|-------------------------------|
B|-----3-----1-----0-----1-----0-|
G|-------2-----2-----2-----2-----|
D|---2-----2-----2-----2-----2---|
A|-0-----------------------------|
E|-------------------------------|
 |                               |
e|-5-----------------------------|
B|--5----------------------------|
G|---7---------------------------|
D|-------------------------------|
A|-------------------------------|
E|-------------------------------|

Chorus                                                                     
e|-------------------------------------------------|
B|-9-9-9--10-10-10--12-12-12--10/-12--14-14-14-----|
G|-9-9-9--10-10-10--12-12-12--10/-12--14-14-14-----|
D|-9-9-9--10-10-10--12-12-12--10/-12--14-14-14-----|
A|-7-7-7---8--8--8--10-10-10---8/-10--12-12-12-----|
E|-------------------------------------------------|

e|-------------------------------------------------|
B|-9-9-9--10-10-10--12-12-12--10/-12---------------|
G|-9-9-9--10-10-10--12-12-12--10/-12--8-------9----|
D|-9-9-9--10-10-10--12-12-12--10/-12--8--8-10------|
A|-7-7-7---8--8--8--10-10-10---8/-10--6--8-10------|
E|---------------------------------------6-8-------|

Acoustic Riff
e|----------------------------------------------|
B|----------3-5-6-5-3---5-6-8-6-5---3-5-6-5-3---|
G|---0-2----------------------------------------|
D|-2--------------------------------------------|
A|----------------------------------------------|
E|----------------------------------------------|

e|----------------------------------------------|
B|-5-6-8-6-5---3-5-6-5-3---5-6-8-6-5---3-6---5-8|
G|----------------------------------------------|
D|----------------------------------------------|
A|----------------------------------------------|
E|----------------------------------------------|

Electric Riff
e|------5---------------------------------------|
B|------5---------------------------------------|
G|-6----6---------------------------------------|
D|-7--------------------------------------------|
A|-7--------------------------------------------|
E|-5--------------------------------------------|


Electric Riff 2
e|---------------------|------------------------|
B|---------------------|------------------------|
G|-3---8-8--5----------|------------------------|
D|-3---8-8--5----------|------------------------|
A|-1---6\5--3----------|-5---7-8-7-5---5-7------|
E|---------------------|-------------8----------|

Outro
e|----------------------------------------------|
B|------------------------5---------------------|
G|------------------------6---------------------|
D|------------------------7---------------------|
A|-5-7-8---7-8-10---8-10--7---------------------|
E|------------------------5---------------------|

Song Order:
something like

Intro
Intro
Intro
Chorus
Intro
Intro
Chorus
Acoustic riff
Electric riff
Chorus
Acoustic riff
Electric riff
Electric Riff 2 X5
Outro


Lyrics: alice sings the verses slightly out of time. listen to the song.
 you'll see what i mean

I'm a gambler and I'm a runner 
but you knew that when 
you layed down

I'm a picture of 
ugly stories 
I'm a killer and 
I'm a clown

Step into the street by sundown 
step into your last goodbye

You're a target just by living
 twenty dollars will make you die

I wear lace and I
 wear black leather 
my hands are lightning 
upon my gun

My shots are clean and
 my shots are final
 my shots are deadly
and when it's done

You're as stiff as my smoking barrel 
you're as dead as a desert night

You're a notch and I'm a legend 
you're at peace and I must hide

Tell me where the hell I'm going 
let my bones fall in the dust

Can't you hear that ghost that's calling 
as my colt begins to rust

in the dust

I'm a killer
I'm a clown 
I'm a priest that's 
gone to town


k, bye
            

comments powered by Disqus
↑ Back to top | Alice Cooper Tabs for Desperado. Lyrics for acoustic guitar and electric guitar. Tablatures and chords are parodies/interpretations of the original songs. You may use it for private study, scholarship, research or language learning purposes only