» » »

Alice Cooper, Desperado Chords (ver.1)

Artists:  A B C D E F G H I J K L M N O P Q R S T U V W X Y Z # 

Desperado Chords (ver.1)

Alice Cooper Tabs
 Rating:
4/5 (7 votes)
Desperado lessons Tabs too difficult? Try these video lessons and learn fast
                
Desperado:



Intro and verse 
E-|---------------------------------------------|-------------------------|
B-|-------3--------5--------6--------5--------3-|------3--------1---------|
G-|----3-----3--------3--------3--------3-------|---------2--------2------|
D-|-3-----------3--------3--------3--------3----|---2--------2--------2---|
A-|---------------------------------------------|0------------------------|
E-|---------------------------------------------|-------------------------|

                                     
E-|---------------------|-------------------------5--------3--------------|
B-|-0--------1--------0-|-------3--------5--------------------------5\----|
G-|----2--------2-------|----3-----3--------3--------3--------3-----------|
D-|-------2--------2----|-3-----------3--------3--------3--------3--------|
A-|---------------------|-------------------------------------------------|
E-|---------------------|-------------------------------------------------|
  
                                                                                   
E-|-----------------------------------------------------------------------|
B-|-------3--------1--------0--------1--------0---------------------------|
G-|----------2--------2--------2--------2---------------------------------|
D-|----2--------2--------2--------2--------2------------------------------|
A-|-0---------------------------------------------------------------------|
E-|-----------------------------------------------------------------------|



I'm a gambler and I'm a runner but you knew that when you layed
down

I'm a picture of ugly stories I'm a killer and I'm a clown

E5            F5                G5             A5   
Step into the street by sundown step into your last goodbye
E5              F5             G5                  Eb5  Bb5 C5
You're a target just by living twenty dollars will make you die

I wear lace and I wear black leather my hands are lightning upon
my gun

My shots are clean and my my shots are final my shots are deadly
and when it's done

E5                    F5             G5                   A5
You're as stiff as my smoking barrel you're as dead as a desert
night

You're a notch and I'm a legend you're at peace and I must
hide



Tell me where the hell I'm going let my bones fall in the
dust

Can't you hear that ghost that's calling as my colt
   Eb5 Bb5 C5    Bb5   Eb5 D5 C5
begins to rust         in the dust

I'm a killer I'm a clown I'm a priest that's gone to town
            
Submit corrections

comments powered by Disqus
↑ Back to top | Alice Cooper Chords for Desperado. Lyrics for acoustic guitar and electric guitar. Tablatures and chords are parodies/interpretations of the original songs. You may use it for private study, scholarship, research or language learning purposes only